VGJam Tabs Lufia II
Lufia II
"Iris' theme" - Guitar tab
Platform(s):Super NES
Tabbed by:Deezer
Last modified:2001-12-12
Print it:Original file (.TXT)
Hear it:MIDI file
#----------------------------------PLEASE NOTE---------------------------------#
#This file is the author's own work and represents their interpretation of the #
#song. You may only use this file for private study, scholarship, or research. #
#------------------------------------------------------------------------------#

Lufia II (Super NES)
"Iris' Theme"

Originally composed by: ?
------------------------------------------------------------------------------
Tabbed by: Deezer (deezer@kontek.net)
For http://www.kontek.net/vgjam/
------------------------------------------------------------------------------

Standard Tuning - (low to high) EADGBe


Background:
===========
(Harp(?) tabbed for guitar)

|-------------15----------------------15----------|
|-------12-13----13-12----------12-13----13-12----|
|-------------------------------------------------|
|----14----------------14----14----------------14-|
|-12----------------------12----------------------|
|-------------------------------------------------| repeat throughout


Lead:
=====
(Some other instrument tabbed for guitar)

------------------------------------------------------------------------------
--------------13----------12--------------------------------------------------
--14----------------------------------------12------------------------------12
--------------------------------------------------14--------------------------
------------------------------------------------------------------------------
------------------------------------------------------------------------------

--------------------------------------------------12--------------------------
--------------13----------12----------------------------------------15--------
--14----------------------------------------12--------------------------------
------------------------------------------------------------------------------
------------------------------------------------------------------------------
------------------------------------------------------------------------------

------------------------------------------------------------------------------
--------------13----------12--------------------------------------------------
--14----------------------------------------12------------------------------12
--------------------------------------------------14--------------------------
------------------------------------------------------------------------------
------------------------------------------------------------------------------

----------------------------------------------------------------------------
--------------------------12----13----12------------------------------------
--14----------------------------------------12----14------------------------
----------------------------------------------------------------------------
----------------------------------------------------------------------------
----------------------------------------------------------------------------

Repeat from beginning.


Last modified: 12/12/2001

VGJam Tabs Lufia II - "Iris' theme"
Tabs database last modified Tuesday, 01-Nov-2016 19:14:53 UTC.
Copyright © 1999 - 2016 VideoGameJam.com. All rights reserved.