VGJam Tabs Mega Man X
Mega Man X
"Flame Mammoth" - Guitar tab
Platform(s):Super NES
Tabbed by:IssacV
Last modified:2002-01-23
Print it:Original file (.TXT)
Hear it:MIDI file
System:Super NES
Game Title: Megaman X
Song: Flame Mammoths stage.

Tabbed by IssacV. (Issac77995@yahoo.com) or:
(http://www.angelfire.com/tx5/butkus)

Its kinda hard to read I know. All numbers that are alike are paired together. 
Good luck and have fun! 
Also, I know that there are other notes in the 
first part but try doing power chords at that speed!
 Not impossible but very hard!!!

----------------------------------------------------------------------
----------------------------------------------------------------------
-------1-------3---1-----1------------------------1------3---1--------
--3----1---3---3---1--3--1----------1----2----3---1--3---3---1--3--1--
--3--------3----------3-------------1----2----3------3----------3--1--
----------------------------------------------------------------------
  (play this one twice)             *faster this time*    (the paired 1, 2, 3)

---------------------------------------------------------------------------
---------------------------------------------------------------------------
-------1-------3---1-----1------------------------1------3---1-------------
--3----1---3---3---1--3--1----------1---2---3-----1--3---3---1---3--1------
--3--------3----------3-------------1---2---3--------3-----------3--1---3--
------------------------------------------------------------------------3--

-------------------------------------------------------------------------------------------------------------------
-------------------------------------------------------------------------------------------------------------------
---------------------------------------------------------------3--3--3-----3--3--3--3----3-------------1-----------
--3--3--3-----3--3--3--3-----3--3--3--3-----3--3--3--3------3--3--3--3-----3--3--3--3----3----1--2--3--1--3--1--2--
--3--3--3-----3--3--3--3-----3--3--3--3-----3--3--3--3------3---------------------------------1--2--3-----3--1--2--
-------------------------------------------------------------------------------------------------------------------

-------------------------------------------------------------------------------------------------------------------
-------------------------------------------------------------------------------------------------------------------
---------------------------------------------------------------3--3--3-----3--3--3--3----3-------3-----------------
--3--3--3-----3--3--3--3-----3--3--3--3-----3--3--3--3------3--3--3--3-----3--3--3--3----3----3--3--6--5--6--5--1--
--3--3--3-----3--3--3--3-----3--3--3--3-----3--3--3--3------3---------------------------------3-----6--5--6--5--1--
-------------------------------------------------------------------------------------------------------------------

-------------------------------------------------------------------------------------------------------------------
-------------------------------------------------------------------------------------------------------------------
---------------------------------------------------------------3--3--3-----3--3--3--3----3-------------1-----------
--3--3--3-----3--3--3--3-----3--3--3--3-----3--3--3--3------3--3--3--3-----3--3--3--3----3----1--2--3--1--3--1--2--
--3--3--3-----3--3--3--3-----3--3--3--3-----3--3--3--3------3---------------------------------1--2--3-----3--1--2--
-------------------------------------------------------------------------------------------------------------------

-------------------------------------------------------------------------------------------------------------------
-------------------------------------------------------------------------------------------------------------------
---------------------------------------------------------------3--3--3-----3--3--3--3----3-------3-----------------
--3--3--3-----3--3--3--3-----3--3--3--3-----3--3--3--3------3--3--3--3-----3--3--3--3----3----3--3--6--5--6--5--1--
--3--3--3-----3--3--3--3-----3--3--3--3-----3--3--3--3------3---------------------------------3-----6--5--6--5--1--
-------------------------------------------------------------------------------------------------------------------

-------------------------------------------------------------------------------------------------------
-------------------------------------------------------------------------------------------------------
----------------------------------------------------------------------------------------------5--3--1--
--3--3--3-----3--3--3--3-----3--5--5--5-----5--5--5--5-----5--1--1--1-----1--1--1--1-----5----6--5--3--
--4--4--4-----4--4--4--4-----4--6--6--6-----6--6--6--6-----6--3--3--3-----3--3--3--3-----6----6--5--3--
--4--4--4-----4--4--4--4-----4--6--6--6-----6--6--6--6-----6--3--3--3-----3--3--3--3-----6-------------

-------------------------------------------------------------------------------------------------------
-------------------------------------------------------------------------------------------------------
----------------------------------------------------------------------------------------------5--3--1--
--3--3--3-----3--3--3--3-----3--5--5--5-----5--5--5--5-----5--1--1--1-----1--1--1--1-----5----6--5--3--
--4--4--4-----4--4--4--4-----4--6--6--6-----6--6--6--6-----6--3--3--3-----3--3--3--3-----6----6--5--3--
--4--4--4-----4--4--4--4-----4--6--6--6-----6--6--6--6-----6--3--3--3-----3--3--3--3-----6-------------
Rhythm end.


Alright! Now the fun stuff! (Issac really means "Crap now the tough stuff")
Lead Guitar, or synth, or whatever it is. 

twice!     
------------------------------------------
--21---20---18-----------21---20----------
------------------------------------------
--------------------------------------17--
------------------------------------------
------------------------------------------

-------------20--18--16--18--16------------------------------------16--------------
---18-------------------------------20---18----------------16--18------18--16--17--
-------------------------------------------------------17--------------------------
-----------------------------------------------------------------------------------
-----------------------------------------------------------------------------------
-----------------------------------------------------------------------------------

-------------20--18--16--18--16-----------------------18--16-------16----------
---18-------------------------------20------------18----------20-------20--16--
-------------------------------------------17----------------------------------
-------------------------------------------------------------------------------
-------------------------------------------------------------------------------
-------------------------------------------------------------------------------

                   *Octave comes in..   (lower)
-------------20--18--16--18--16------------------------------------16--------------
---18-------------------------------20---18-----------16--17--18-------18--16--17--
-----------------------------------------------------------------------------------
-----------------------------------------------------------------------------------
-----------------------------------------------------------------------------------
-----------------------------------------------------------------------------------
Harmonized in: well...I'm to lazy! If someone needs it I'll write the harmony. 


---------20--18--16--18--16-----------------------------18--16------16----------
---18---------------------------20-----20-----------20----------20------20--16--
--------------------------------------------------------------------------------
--------------------------------------------------------------------------------
--------------------------------------------------------------------------------
--------------------------------------------------------------------------------
This part rocks! Have muchos of fun on this one!!!! 
---21-16----21-16----21-16-15-21-18-15-21-18-15-21-20-15----20-15----20-15-16---15---13-----16-15-13-----
---------18-------18-------------------------------------16-------16---------------------------------16--
---------------------------------------------------------------------------------------------------------
---------------------------------------------------------------------------------------------------------
---------------------------------------------------------------------------------------------------------
---------------------------------------------------------------------------------------------------------

---21-16----21-16----21-16-15-21-18-15-21-18-15-21-20-15----20-15----20-23--21-20-18-16-18-16-----------
---------18-------18-------------------------------------16-------16--------------------------20-18-16--
--------------------------------------------------------------------------------------------------------
--------------------------------------------------------------------------------------------------------
--------------------------------------------------------------------------------------------------------
--------------------------------------------------------------------------------------------------------

woops! almost forgot that little.....
--------------------
---16----17----18---
--------------------
--------------------
--------------------
--------------------

VGJam Tabs Mega Man X - "Flame Mammoth"
Tabs database last modified Tuesday, 01-Nov-2016 19:14:53 UTC.
Copyright © 1999 - 2016 VideoGameJam.com. All rights reserved.