VGJam Tabs Mega Man X
Mega Man X
"Intro stage" - Bass tab
Platform(s):Super NES
Tabbed by:Walter Strömberg
Last modified:2000-08-18
Print it:Original file (.TXT)
Hear it:MIDI file
Game: Mega Man X
Song: Intro Stage
Composer: Unknown
Tabbed by: Walter Str\mberg (supervisor@chello.se)


  Impossible intro:
G|----5-3---0--------|
D|--------3----------|
A|--3---------3-1-2--|
E|-------------------|


  Play this 2 times:
G|-----------------------------------------------|
D|-------------------------------------1---------|
A|--3-3-3-3-------1-3---------1-3---------3------|
E|-------------3-----------3-----------------3---|


  Continue:
G|---------------------------1-------1------|
D|------------------------------------------|
A|------------------------------------------|
E|--4-4-4-4--4-4-4-4--4-4-4-----4-4------4--|


E|---------7-------7-----------3-----------0-----|
D|--0---------0-------0--------------------------|
A|--------------------------1-----1-----3-----3--|
E|-----------------------------------------------|


  Play this 2 times again:
G|-----------------------------------------------|
D|-------------------------------------1---------|
A|--3-3-3-3-------1-3---------1-3---------3------|
E|-------------3-----------3-----------------3---|


  And this again:
G|---------------------------1-------1------|
D|------------------------------------------|
A|------------------------------------------|
E|--4-4-4-4--4-4-4-4--4-4-4-----4-4------4--|

E|---------7-------7-----------3-----------0-----|
D|--0---------0-------0--------------------------|
A|--------------------------1-----1-----3-----3--|
E|-----------------------------------------------|


  And now these parts before the ending:
G|------------------------------------------0----|
D|---------------------------------------0-------|
A|--------------3---------------------1----------|
E|--4-4-4-4-4------6-4---3-3-3-3-3---------------|


G|------------------------------------------0----|
D|---------------------------------------0-------|
A|-----------------------------------1-----------|
E|--1-1-1-1-1---3--4-1---3-3-3-3-3---------------|


G|------------------------------------------0----|
D|---------------------------------------0-------|
A|--------------3---------------------1----------|
E|--4-4-4-4-4------6-4---3-3-3-3-3---------------|


G|---------------------5-------------------------|
D|------------------0--------3-3-3-3-3-3-3-0-----|
A|---------------1-------------------------------|
E|--3-3-3-3-3------------------------------------|

G|--0-------0-------0------|
D|-------------------------|
A|-------------------------|
E|-----3-3-----3-3-----3---|


  The ending:
G|-----------------------------------------------|
D|-----------------------------------------------|
A|-------------0-1------3--1--0--5--3--0--1--3---|
E|--3-3-3-3-3------3-----------------------------|


G|-----------------------------------------------|
D|-----------------------1-0--------0--1--3--0---|
A|--------------1--3-----------1-3---------------|
E|--4-4-4-4-4--------4---------------------------|

G|-----------------------------------------------|
D|-----------------------3-1-0------0--1--3--5---|
A|--------------0--1-----------1-----------------|
E|--3-3-3-3-3--------3---------------------------|


  Last damn line:
G|-----------------------------------------------|
D|--3-3-3-3-3-1-0--------------------------------|
A|----------------1---3--------3------------1-2--|
E|-----------------------3--3--------------------|


The last 2 notes initiate the line right
after the intro. In other words, start from top!


\ Walter Str\mberg, Stockholm
  Tabbed 29th of July 2000

VGJam Tabs Mega Man X - "Intro stage"
Tabs database last modified Tuesday, 01-Nov-2016 19:14:53 UTC.
Copyright © 1999 - 2016 VideoGameJam.com. All rights reserved.