VGJam Tabs Mega Man X
Mega Man X
"Sigma Fortress Level 1" - Guitar tab
Platform(s):Super NES
Tabbed by:Per Hall
Last modified:2001-10-14
Print it:Original file (.TXT)
Song: Sigma Fortress Level 1  
Stage From: Mega Man X  
Transcribed by: Per Hall


Tune down 1/2 step and use lots of reverb on this one!

e:-------------------------------------|
B:-------7-----------------------------|
G:--9~-----7---------------------------|
D:-----------7~---5h7-9~--7/5-4~-------|
A:-------------------------------------|
E:-------------------------------------|


e:--------------------------------------------------------------------------------------|
B:--------------------------------------------------------------------------------------|
G:------------------------------------------------------7--9----------------------------|
D:---9--7~----------7~--------9--7~--------------9~--9--------~7----------------7h9p7~--|
A:--------------10----------------------10-9------------------------10p9h10~------------|
E:--------------------------------------------------------------------------------------|


e:--------------------------------------------------------------------------------------|
B:------------------------------------------7h8p7----7-----10---------------------------|
G:----------------------7--9----------7h9-9-------9-----7-------------------------------|
D:---------------9~--9---------7~--9----------------------------------------------------|
A:----5~--------------------------------------------------------------------------------|
E:--------------------------------------------------------------------------------------|


e:------------------------------------------------------------------------8----------7--|
B:--10p8-7h8-7--------8h10p8p7-----8p7-3h5----------7-8-------10--8-8~-------10--8/7----|
G:--------------7-9~------------7--------------7-9-------9p7----------------------------|
D:--------------------------------------------------------------------------------------|
A:--------------------------------------------------------------------------------------|
E:--------------------------------------------------------------------------------------|

VGJam Tabs Mega Man X - "Sigma Fortress Level 1"
Tabs database last modified Tuesday, 01-Nov-2016 19:14:53 UTC.
Copyright © 1999 - 2016 VideoGameJam.com. All rights reserved.