VGJam Tabs Mega Man X
Mega Man X
"Stage select" - Guitar tab
Platform(s):Super NES
Tabbed by:Thomas McManus
Last modified:2001-12-11
Print it:Original file (.TXT)
Hear it:MIDI file
Song: Stage Select
Game: Mega Man X
Composed by: ???
Tabbed by: Thomas McManus (tom0015@hotmail.com)

Play this twice with drums and bass, then once solo, repeat endlessly.

(with distortion)
e---------------------------------------------------------------------
B---------------------------------------------------------------------
G------------------------8~~-6~---------------------------6h8p6-------
D---6-8--------------6-8-------------6-8--------------6-8-------8-6~~-
A-8--------4~-6-4~-8---------------8--------4~-6-4~-8-----------------
E---------------------------------------------------------------------


Bass riff:
G---------------------------------------------------------------------
D-3-3-3-3-3-3-3-3-3-3-3-3-3-3-3-3-3-3-3-3-3-3-3-3-3-3-3-3-3-3-3-3-3-3-
A---------------------------------------------------------------------
E---------------------------------------------------------------------
VGJam Tabs Mega Man X - "Stage select"
Tabs database last modified Tuesday, 01-Nov-2016 19:14:53 UTC.
Copyright © 1999 - 2016 VideoGameJam.com. All rights reserved.