VGJam Tabs Mega Man X
Mega Man X
"Storm Eagle stage" - Guitar tab
Platform(s):Super NES
Tabbed by:supernaut000
Last modified:2002-12-25
Print it:Original file (.TXT)
Hear it:MIDI file
Megaman X
Storm Eagle Stage


Intro
e |--------------------------------------------------------------------------------|
B |--------------------------------------------------------------------------------|
G |--------5--------5-----3-----------------------5--------5-----3-----------------|
D |--------5--------5-----3-----------------------5--------5-----3-----------------|
A |--3--3--3--3--3--3--3--1--------0--1--2--3--3--3--3--3--3--3--1--------0--1--2--|
E |--------------------------------------------------------------------------------|


Solo
e |-------------------------3------4----3---3----------------------|
B |---------------3---4-3-----------------6------6-4-3-------------|
G |--5----3---5-----------5----------------------------------------|
D |-------------------------------------------------------5-3-5----|
A |----------------------------------------------------------------|
E |----------------------------------------------------------------|

e |-------------------------3------4----3---3-------------3----|
B |---------------3---4-3-----------------6------6-4-3---------|
G |--5----3---5-----------5------------------------------------|
D |------------------------------------------------------------|
A |------------------------------------------------------------|
E |------------------------------------------------------------|

e |----------------------------------------------11---13---15---13-11---|
B |-----------12-10-13---15-13-12-15-13-12-15-13------------------------|
G |--12----12-----------------------------------------------------------|
D |-----12--------------------------------------------------------------|
A |---------------------------------------------------------------------|
E |---------------------------------------------------------------------|

e |------------------------------------------------|
B |-----------12-10-13---15-13-12-15-13-12-15-13---|
G |--12----12--------------------------------------|
D |-----12-----------------------------------------|
A |------------------------------------------------|
E |------------------------------------------------|

e |------------------------11p10h11-------------------------------------------------|
B |--13p12h13-------------------------13p12h13--------------------------------------|
G |-------------12p11h12-------------------------12p11h12---------------------------|
D |---------------------------------------------------------13p12h13---10p9h10------|
A |---------------------------------------------------------------------------------|
E |---------------------------------------------------------------------------------|


Play this part in the background.
e |------------------------------------------------------------------------------------------------------|
B |------------------------------------------------------------------------------------------------------|
G |--5--5--5--5--5--5--5--5--------------------------------------------------3--3--3--3--3--3--3--3------|
D |--5--5--5--5--5--5--5--5--5--5--5--5--5--5--5--5--6--6--6--6--6--6--6--6--3--3--3--3--3--3--3--3------|
A |--3--3--3--3--3--3--3--3--5--5--5--5--5--5--5--5--6--6--6--6--6--6--6--6--1--1--1--1--1--1--1--1------|
E |--------------------------3--3--3--3--3--3--3--3--4--4--4--4--4--4--4--4------------------------------|

e |------------------------------------------------------------------------------------------------------|
B |------------------------------------------------------------------------------------------------------|
G |--5--5--5--5--5--5--5--5--------------------------------------------------3--3--3--3--3--3--3--3------|
D |--5--5--5--5--5--5--5--5--5--5--5--5--5--5--5--5--6--6--6--6--6--6--6--6--3--3--3--3--3--3--3--3------|
A |--3--3--3--3--3--3--3--3--5--5--5--5--5--5--5--5--6--6--6--6--6--6--6--6--1--1--1--1--1--1--1--1------|
E |--------------------------3--3--3--3--3--3--3--3--4--4--4--4--4--4--4--4------------------------------|

e |------------------------------------------------------------------------------------------------------|
B |------------------------------------------------------------------------------------------------------|
G |--------------------------------------------------5--5--5--5--7--7--7--7--8--8--8--8--12--12--12--12--|
D |--6--6--6--6--6--6--6--6--5--5--5--5--5--5--5--5--5--5--5--5--7--7--7--7--8--8--8--8--12--12--12--12--|
A |--6--6--6--6--6--6--6--6--5--5--5--5--5--5--5--5--3--3--3--3--5--5--5--5--6--6--6--6--10--10--10--10--|
E |--4--4--4--4--4--4--4--4--3--3--3--3--3--3--3--3------------------------------------------------------|

e |--------------------------------------------------|
B |--------------------------------------------------|
G |--------------------------------------------------|
D |--6--6--6--6--6--6--6--6--5--5--5--5--5--5--5--5--|
A |--6--6--6--6--6--6--6--6--5--5--5--5--5--5--5--5--|
E |--4--4--4--4--4--4--4--4--3--3--3--3--3--3--3--3--|

e |--------------------------------------------------------------------------------|
B |--------------------------------------------------------------------------------|
G |--------5--------5-----3-----------------------5--------5-----3-----------------|
D |--------5--------5-----3-----------------------5--------5-----3-----------------|
A |--3--3--3--3--3--3--3--1--------0--1--2--3--3--3--3--3--3--3--1--------0--1--2--|
E |--------------------------------------------------------------------------------|
  (play this line twice, then go back to beginning)


VGJam Tabs Mega Man X - "Storm Eagle stage"
Tabs database last modified Tuesday, 01-Nov-2016 19:14:53 UTC.
Copyright © 1999 - 2016 VideoGameJam.com. All rights reserved.