VGJam Tabs Mega Man X
Mega Man X
"Title screen" - Guitar tab
Platform(s):Super NES
Tabbed by:Cryptopsy911
Last modified:2002-07-17
Print it:Original file (.TXT)
Hear it:MIDI file
Tabbed By: Cryptopsy911
Song: Megaman X Title Screen
System: Snes

All guitars tuned to E


-------------|
-13-sb-------|
-------------|
-------------|
-------------|
-------------|

Rhythm Guitar:
-----------------------------------------|
-----------------------------------------|
-----------------------------------------|
----------------------------------3~~~---|
-6p3--3-3-3-3--3-3-3-3--3-3--6p3---------|
-----------------------------------------|


---------------------------------------|
---------------------------------------|
---------------------------------------|
---------------------------------------|
-6p3--3-3-3-3--3-3-3-3--3-3----1-------|
----------------------------------3~~--|

-----------------------------------------|
-----------------------------------------|
-----------------------------------------|
----------------------------------3~~~---|
-6p3--3-3-3-3--3-3-3-3--3-3--6p3---------|
-----------------------------------------|

Fill:
--------------------------------------|
--------------------------------------|
--------------------------------------|
-/-6-6~~--5-5~~--3-3~~----------------|
------------------------6-6~~--3------|
----------------------------------6~~-|

Repeat Rhythm Guitar Section once again, although the "Fill"
changes at the nd of the song to this


------------------------------------------|
------------------------------------------|
-----------------3-3~~--5-5~~---5p3h5~~---|
-6-6~~--5-5~~-----------------------------|
------------------------------------------|
------------------------------------------|

Now for the lead guitar
This is the weird...synth thingy that goes on while the rhythm
is playing

Lead:
---------------------|
-11--10----9~~--8~~--|
-10---9----8~~--7~~--|
---------------------|
---------------------|
---------------------|

---------------------|
-11--13----9~~--8~~--|
-10--12----8~~--7~~--|
---------------------|
---------------------|
---------------------|

---------------------|
-11--10----9~~--8~~--|
-10---9----8~~--7~~--|
---------------------|
---------------------|
---------------------|

---------------------------------------|
-11--13----8-8--9-9--11--11--12--12~~--|
-10--12----7-7--8-8--10--10--11--11~~--|
---------------------------------------|
---------------------------------------|
---------------------------------------|


~= Vibrato
SB= Slide Back whole neck
/= slide up to note
\= slide down to note

Happy Playin!
VGJam Tabs Mega Man X - "Title screen"
Tabs database last modified Tuesday, 01-Nov-2016 19:14:53 UTC.
Copyright © 1999 - 2016 VideoGameJam.com. All rights reserved.