VGJam Tabs Final Fantasy X
Final Fantasy X
"Besaid Island" - Guitar tab
Platform(s):PlayStation 2
Composed by:Nobuo Uematsu, Masashi Hamauzu, Junya Nakano
Soundtrack:Final Fantasy X Original Soundtrack [SSCX-10054~7] (track D1-18)
Tabbed by:Deezer
Last modified:2003-04-06
Print it:Original file (.TXT)
Hear it:MIDI file
#----------------------------------PLEASE NOTE---------------------------------#
#This file is the author's own work and represents their interpretation of the #
#song. You may only use this file for private study, scholarship, or research. #
#------------------------------------------------------------------------------#


Final Fantasy X (PlayStation 2)
"Besaid Island"

Originally composed by: Masashi Hamauzu
------------------------------------------------------------------------------
Tabbed by: Deezer (deezer@kontek.net)
For http://www.kontek.net/vgjam/
------------------------------------------------------------------------------

Standard tuning: (low to high) EADGBe


Intro:
======

------------------------------------------------------------------------------
------------------------------------------------------------------------------
---------------16----14-------------------------------------14----------------
---------------14----12-------------------------------------------------------
-12--------------------------------------12-----------------------------------
------------------------------------------------------------------------------
                                                                        Repeat

Part 1:
=======

---------------19----17------------14-----------------------------------------
-----------------------------------------17------------15---------------------
-14----------------------------------------------------------14---------------
------------------------------------------------------------------------------
------------------------------------------------------------------------------
------------------------------------------------------------------------------

---------------19----17------------14------------------------14---------------
-----------------------------------------17------------15---------------------
-14---------------------------------------------------------------------------
------------------------------------------------------------------------------
------------------------------------------------------------------------------
------------------------------------------------------------------------------

Repeat Part 1.

Part 2:
=======

---------------17----14-------------------------------------------------------
-----15--------15----15------------------17-----------15----------------------
-----16-----------------------------------------------------14----------------
-----16-----------------------------------------------------16----------------
------------------------------------------------------------------------------
------------------------------------------------------------------------------
                                                                        Repeat

Then repeat from Part 1 as desired.


Last modified: 04/06/2003

VGJam Tabs Final Fantasy X - "Besaid Island"
Tabs database last modified Tuesday, 01-Nov-2016 19:14:53 UTC.
Copyright © 1999 - 2016 VideoGameJam.com. All rights reserved.