VGJam Tabs Mega Man X
Mega Man X
"Zero's theme" - Guitar tab
Platform(s):Super NES
Tabbed by:Cid Highwind
Last modified:2002-03-24
Print it:Original file (.TXT)
Game: Mega Man X 
Song: Zero's Theme
Tabbed By: Cid Highwind

Contact: ICQ #42182823
Email: cid@blink-182.org

Tablature: B: Bend -- P: Pull Off
           /: Slide

		Intro

|---------------------------------------|
|---------------------------------------|
|-000-12-0-10-0-8-0-6-4-2-------12-10b--|
|---------------------------------------|
|---------------------------------------|
|---------------------------------------|

|---------------------------------------|
|---------------------------------------|
|-000-12-0-10-0-8-0-6-4-2----7-00-5-0-3b|
|---------------------------------------|
|---------------------------------------|
|---------------------------------------|

		Solo

|---------------------------------------|
|---------------------------------------|
|--4--4-6-7//9-7-6---------7/9\6--------|
|-------------------4p5-4---------------|
|---------------------------------------|
|---------------------------------------|

I'll try to work the rest out later.  I'm too busy.

VGJam Tabs Mega Man X - "Zero's theme"
Tabs database last modified Tuesday, 01-Nov-2016 19:14:53 UTC.
Copyright © 1999 - 2016 VideoGameJam.com. All rights reserved.