VGJam Tabs Mega Man X2
Mega Man X2
"Flame Stag" - Guitar, Bass tab
Platform(s):Super NES
Tabbed by:Livewire626
Last modified:2002-03-24
Print it:Original file (.TXT)
Hear it:MIDI file
Title: Megaman X2-Flame Stag
Tabbed by: Livewire626
Comments: Shred-heads unite! Guitar 1 is lead, 2 is rythm, Bass is...well, 
you know. I Numbered the measures in the lead part to avoid confusion. Who 
knows...I may get the entire game tabbed if I feel like it =P....hahaha, 
who am I kidding? BTW, If you have any requests, drop me a line at 
Livewire626@teamartail.com

Guitar and Bass Tuning=Drop D low to high:
DADGBe
DADG

[RIFF 1]
guitar 1 & 2
|--------------------|-------------|
|--------------------|-------------|
|--------------------|-------------|
|-9-12-11-9-14--11-12|-9-11-7-5--7-|
|-9-12-11-9-14--11-12|-9-11-7-5--7-|
|-9-12-11-9-14--11-12|-9-11-7-5--7-| x4

Bass
|-------|------------|
|-------|------------|
|-2-2---|-2-2--3--5--|
|-------|------------| x4

[RIFF 2]
guitar 2 (guitar 1 has no part here)
|------------------|----------------|--------------|
|------------------|----------------|--------------|
|------------------|----------------|--------------|
|-9-9-9-9--9-9-9-9-|-10-10--9-9-9-9-|-9-9-9-9--8-8-|
|-9-9-9-9--9-9-9-9-|-10-10--9-9-9-9-|-9-9-9-9--8-8-|
|-9-9-9-9--9-9-9-9-|-10-10--9-9-9-9-|-9-9-9-9--8-8-|

Bass
|------------------|---------------|----------------|
|------------------|---------------|----------------|
|-2-2-2-2--2-2-2-2-|-3--3--2-2-2-2-|-2-2-2-2--1--1--|
|------------------|---------------|----------------|

[LEAD] (guitar 1)
[1.              2.          3.        4.           5.        6.     7.   
8.
[                                                                      _____
[|-10---9-10--12|-14----10--|-12-----9|------10--9-|------10-|12--15|-14-|-14-|
[|-12--10-12--14|-15----12--|-14----10|-10---12-10-|-12---12-|14----|-12-|-12-|
[|--------------|-----------|---------|--9---------|-12------|----14|----|----|
[|--------------|-----------|---------|------------|---------|------|----|----|
[|--------------|-----------|---------|------------|---------|------|----|----|
[|--------------|-----------|---------|------------|---------|------|----|----|
[
[9.             10.        11.           12.          13.    14.      15.
[
[|-10---9-10--12|---15-14-|-12----9--12-|--14-12--10-|------|-9---12--|10-|
[|-12--10-12--14|---17-15-|-14---10--14-|--15-14--12-|-12---|10---14--|12-|
[|--------------|---------|-------------|------------|-12---|---------|---|
[|--------------|---------|-------------|------------|------|---------|---|
[|--------------|---------|-------------|------------|------|---------|---|
[|--------------|---------|-------------|------------|------|---------|---|
[ 16.      17.    18.      19.      20.
[                             ________
[|--14-12-|10-----|--9-----|-------|-------|
[|--15-14-|12--12-|-10--10-|-12----|-12----|
[|--------|----12-|------9-|-11----|-11----|
[|--------|-------|--------|-------|-------|
[|--------|-------|--------|-------|-------|
[|--------|-------|--------|-------|-------|
[
[
[(guitar 2)
[ 1.(9)             2.(10)            3.(11)            4.(12)
[|-----------------|-----------------|-----------------|-----------------|
[|-----------------|-----------------|-----------------|-----------------|
[|-----------------|-----------------|-----------------|-----------------|
[|-9-9-9-9-9-9-9-9-|-9-9-9-9-9-9-9-9-|-7-7-7-7-7-7-7-7-|-7-7-7-7-7-7-7-7-|
[|-9-9-9-9-9-9-9-9-|-9-9-9-9-9-9-9-9-|-7-7-7-7-7-7-7-7-|-7-7-7-7-7-7-7-7-|
[|-9-9-9-9-9-9-9-9-|-9-9-9-9-9-9-9-9-|-7-7-7-7-7-7-7-7-|-7-7-7-7-7-7-7-7-|
[ 5.(13)            6.(14)            7.(15)            8.(16)
[|-----------------|-----------------|-----------------|-----------------|
[|-----------------|-----------------|-----------------|-----------------|
[|-----------------|-----------------|-----------------|-----------------|
[|-5-5-5-5-5-5-5-5-|-7-7-7-7-7-7-7-7-|-9-9-9-9-9-9-9-9-|-9-9-9-9-9-9-9-9-|
[|-5-5-5-5-5-5-5-5-|-7-7-7-7-7-7-7-7-|-9-9-9-9-9-9-9-9-|-9-9-9-9-9-9-9-9-|
[|-5-5-5-5-5-5-5-5-|-7-7-7-7-7-7-7-7-|-9-9-9-9-9-9-9-9-|-9-9-9-9-9-9-9-9-|
[ 17.               18.               19.               20.
[|-----------------|-----------------|-----------------|-----------------|
[|-----------------|-----------------|-----------------|-----------------|
[|-----------------|-----------------|-----------------|-----------------|
[|-5-5-5-5-5-5-5-5-|-7-7-7-7-7-7-7-7-|-9-9-9-9-9-9-9-9-|-9-9-9-9-9-9-9-9-|
[|-5-5-5-5-5-5-5-5-|-7-7-7-7-7-7-7-7-|-9-9-9-9-9-9-9-9-|-9-9-9-9-9-9-9-9-|
[|-5-5-5-5-5-5-5-5-|-7-7-7-7-7-7-7-7-|-9-9-9-9-9-9-9-9-|-9-9-9-9-9-9-9-9-|
[
[
[
[Bass parenthesis () indicate playing it twice, if you didn't know.
[ 1.(9)             2.(10)            3.(11)            4.(12)
[|-----------------|-----------------|-----------------|-----------------|
[|-----------------|-----------------|-----------------|-----------------|
[|-2-2-2-2-2-2-2-2-|-2-2-2-2-2-2-2-2-|-0-0-0-0-0-0-0-0-|-0-0-0-0-0-0-0-0-|
[|-----------------|-----------------|-----------------|-----------------|
[ 5.(13)            6.(14)            7.(15)            8.(16)
[|-----------------|-----------------|-----------------|-----------------|
[|-----------------|-----------------|-----------------|-----------------|
[|-----------------|-0-0-0-0-0-0-0-0-|-2-2-2-2-2-2-2-2-|-2-2-5-5-4-4-3-3-|
[|-5-5-5-5-5-5-5-5-|-----------------|-----------------|-----------------| 

(repeat)
[ 17.               18.               19.               20.
[|-----------------|-----------------|-----------------|-----------------|
[|-----------------|-----------------|-----------------|-----------------|
[|-----------------|-0-0-0-0-0-0-0-0-|-2-2-2-2-2-2-2-2-|-2-2-2-2-2-2-2-2-|
[|-5-5-5-5-5-5-5-5-|-----------------|-----------------|-----------------|

Then just play it over. Mwahahahaha...

VGJam Tabs Mega Man X2 - "Flame Stag"
Tabs database last modified Tuesday, 01-Nov-2016 19:14:53 UTC.
Copyright © 1999 - 2016 VideoGameJam.com. All rights reserved.