VGJam Tabs Mega Man X2
Mega Man X2
"Zero's theme" - Guitar, Bass tab
Platform(s):Super NES
Tabbed by:Livewire626
Last modified:2002-07-26
Print it:Original file (.TXT)
Hear it:MIDI file
Title: Megaman X2- Zero's theme
Tabbed by: Livewire626
Comments: O.o if you can play this as it is, I will *worship* you. :P And
if you haven't noticed by now, I use Drop D tuning because it's easier to do
power chords that way. If you don't like it, there's just a 2 fret 
difference going down. Figure it out. =P

Guitar 1 = Lead
Guitar 2 = Rythm
Bass = Bass

Tuning Drop D low to high:
DADGBe
DADG (Bass)

 [Intro Riff] (Guitar 2)   ____
 |-----------|-----------|---|---|
 |-----------|-----------|---|---|
 |-1--3--5---|-5--3--1---|-1-|-1-|
 |-1--3--5---|-5--3--1---|-1-|-1-|
 |-3--5--6---|-6--5--3---|-3-|-3-|
 |-----------|-----------|---|---|

 (Guitar 1)                                _____________
 |---------------------|15-13-11-13-11-10-11----|-11-|-11-|
 |16-15-13-15-13-16----|16-15-13-15-13-11-13----|-13-|-13-|
 |17-15-13-15-13-17----|------------------------|----|----|
 |---------------------|------------------------|----|----|
 |---------------------|------------------------|----|----|
 |---------------------|------------------------|----|----|

 (Bass)
 |-----------|-----------|-----|-----|
 |-----------|-----------|-----|-----|
 |----1--3---|-3--1------|-----|-----|
 |-6---------|-------6---|-----|-----|


 [Main Riff](Guitar 2)
 |----------------|----------------|----------------|----------------|
 |----------------|----------------|----------------|----------------|
 |----------------|----------------|----------------|----------------|
 |----------------|----------------|----------------|----------------|
 |3-3-3-3-3-3-3-3-|3-3-3-3-3-3-3-3-|3-3-3-3-3-3-3-3-|3-3-3-3-3-3-3-3-|
 |5-5-5-5-5-5-5-5-|5-5-5-5-5-5-5-5-|6-6-6-6-6-6-6-6-|6-6-6-6-6-6-6-6-|

 |----------------|----------------|----------------|----------------|
 |----------------|----------------|----------------|----------------|
 |----------------|----------------|----------------|----------------|
 |0-0-0-0-0-0-0-0-|0-0-0-0-0-0-0-0-|----------------|0-0-0-0-0-0-0-0-|
 |1-1-1-1-1-1-1-1-|1-1-1-1-1-1-1-1-|3-3-3-3-3-3-3-3-|1-1-1-1-1-1-1-1-|
 |----------------|----------------|6-6-6-6-6-6-6-6-|----------------|

 (Guitar 1)
 |--------|-----------------|-----------|-15-15-15-13-11|
 |-13--15-|-16--16-16-15-11-|13--15--16-|-16-16-16-15-13|
 |--------|-----------------|13--15--17-|---------------|
 |-13--15-|-17--17-17-15-12-|-----------|---------------|
 |--------|-----------------|-----------|---------------|
 |--------|-----------------|-----------|---------------|

 |10--11--13--|-16-16-16-15-10-|-11--13--11--|----------------|
 |11--13--15--|-18-18-18-16-11-|-13--15--13--|-15-------------|
 |------------|----------------|-------------|-15--15--16-----|
 |------------|----------------|-------------|-----15--17-----|
 |------------|----------------|-------------|----------------|
 |------------|----------------|-------------|----------------|

 (Bass)
 |----------------|----------------|----------------|----------------|
 |----------------|----------------|----------------|----------------|
 |3-3-3-3-3-3-3-3-|3-3-3-3-3-3-3-3-|----------------|----------------|
 |----------------|----------------|6-6-6-6-6-6-6-6-|6-6-6-6-6-6-6-6-|

 |----------------|----------------|----------------|----------------|
 |----------------|----------------|----------------|----------------|
 |1-1-1-1-1-1-1-1-|1-1-1-1-1-1-1-1-|----------------|1-1-1-1-1-1-1-1-|
 |----------------|----------------|6-6-6-6-6-6-6-6-|----------------|

 Rinse, Repeat.

VGJam Tabs Mega Man X2 - "Zero's theme"
Tabs database last modified Tuesday, 01-Nov-2016 19:14:53 UTC.
Copyright © 1999 - 2016 VideoGameJam.com. All rights reserved.