VGJam Tabs Mega Man X3
Mega Man X3
"Blast Hornet" - Guitar tab
Platform(s):Super NES
Tabbed by:EhX
Last modified:2003-01-25
Print it:Original file (.TXT)
Hear it:MIDI file
Game: Megaman x3
Song: Blast Hornet Stage
Console: Super Nintendo

Tabbed By: EhX
Ehx7@hotmail.com

There are multiple instruments playing at once, but I tabbed this so one

guitar could play
the whole song solo.

Intro
------------------------12-------12--12--0--0--|
------------------------12-------12--12--0--0--|
-----------------------------------------------| x3
-----------------------------------------------|
-----------------------------------------------|
-0-0--0-0--0-0--0-0--0------0-0----------------|

--------------------------------------------|
--------------------------------------------|
--------------------------------------------|
------------------------7-------------------|
---------------------------7--6--5~~--------|
-0-0--0-0--0-0--0-0--0-----------------8--7-|


Lead
------------------------------------------------|
------------------------------------------------|
------------------------------------------------|
--------------7--6~~-------5~~---4~~------------|
-----------------------7~-------------------7~~-|
-5~~---7--8----------------------------8~-------|

-0-0---0---0-0---0---0-0---0-----------|
-1-1---1---1-1---1---1-1---1-----------|
-2-2---2---2-2---2---2-2---2---0---2~~-|
-2-2---2---2-2---2---2-2---2---0---2~~-|
-0-0---0---0-0---0---0-0---0-----------|
-0-0---0---0-0---0---0-0---0-----------|

----------------------------------------------------|
----------------------------------------------------|
----------------------------------------------------|
-------------7--6~~-------5~~---------4~~-----------|
---------------------7~~---------3~---------3~------|
-5~~---7--8-------------------------------------5~~-|



-0-0---0---0-0---0---0-0---0-----------|
-1-1---1---1-1---1---1-1---1-----------|
-2-2---2---2-2---2---2-2---2---0---2~~-|
-2-2---2---2-2---2---2-2---2---0---2~~-|
-0-0---0---0-0---0---0-0---0-----------|
-0-0---0---0-0---0---0-0---0-----------|


--------------------------------------------|
--------------------------------------------|
----2~--0--2----5~~-------2~~---0--2---4~---|
----2~--0--2----5~~-------2~~---0--2---4~---|
-0------------------------------------------|
----------------------4---------------------|

-----------------------------------|
-----------------------------------|
----2~--0--2---5--4--7--4---5~~----|
----2~--0--2---5--4--7--4---5~~----|
-0---------------------------------|
-----------------------------------|


Repeat --- Times

Have fun!
VGJam Tabs Mega Man X3 - "Blast Hornet"
Tabs database last modified Tuesday, 01-Nov-2016 19:14:53 UTC.
Copyright © 1999 - 2016 VideoGameJam.com. All rights reserved.