VGJam Tabs Mega Man X3
Mega Man X3
"Crush Crawfish" - Guitar tab
Platform(s):Super NES
Tabbed by:EhX
Last modified:2003-01-26
Print it:Original file (.TXT)
Hear it:MIDI file
Game: Megaman X3
Song: Crush Crawfish
Console: Super Nintendo

Tabbed By: EhX
Ehx7@hotmail.com

This song can be a little tricky to play at first, but with practice it'll
became a fun and impressive song to play

Fast Intro  (2 guitars)
Guitar 1
-------------------------------------------------|
-------------------------------------------------|
-10--13--12--10--13--12--10--13--12--10--13--12--|
-------------------------------------------------|
-------------------------------------------------|
-------------------------------------------------|

-------------------------------------------------|
-------------------------------------------------|
-12--15--13--12--15--13--12--15--13--12--15--13--|
-------------------------------------------------|
-------------------------------------------------|
-------------------------------------------------|

-------------------------------------------------|
-------------------------------------------------|
-13--17--15--13--17--15--13--17--15--13--17--15--|
-------------------------------------------------|
-------------------------------------------------|
-------------------------------------------------|

--------------------------------------------------|
--------------------------------------------------|
-15--19--17--15--19--17--15--19--17--15--19--17---|
--------------------------------------------------|
--------------------------------------------------|
--------------------------------------------------|

Guitar 2
--------------------------------------------------|
--------------------------------------------------|
--------------------------------------------------|
-10--13--12--10--13--12--10--13--12--10--13--12---|
--------------------------------------------------|
--------------------------------------------------|


--------------------------------------------------|
--------------------------------------------------|
--------------------------------------------------|
-12--15--13--12--15--13--12--15--13--12--15--13---|
--------------------------------------------------|
--------------------------------------------------|

--------------------------------------------------|
--------------------------------------------------|
--------------------------------------------------|
-13--17--15--13--17--15--13--17--15--13--17--15---|
--------------------------------------------------|
--------------------------------------------------|

--------------------------------------------------|
--------------------------------------------------|
--------------------------------------------------|
-15--18--17--15--18--17--15--18--17--15--18--17---|
--------------------------------------------------|
--------------------------------------------------|

Repeat "Fast Intro" once more

Fast Fill In (2 guitars)
Guitar 1
-15~~-----------------------------------|
-------18--16--18--16--15--16--15-------|
------------------------------------17--|
----------------------------------------|
----------------------------------------|
----------------------------------------|

--------------------------------------------------------|
-15-----------------------------------------------------|
-----17--15--17--15------15-----------------------------|
---------------------18------18--17--18--17--15--17~~~--|
--------------------------------------------------------|
--------------------------------------------------------|

Guitar 2
-----------------------------------------|
-15~~------------------------------------|
-------17--15--17--15------15------------|
-----------------------18------18--17----|
-----------------------------------------|
-----------------------------------------|

--------------------------------------------------------|
--------------------------------------------------------|
--------------------------------------------------------|
-18--17--15--17--15------15-----------------------------|
---------------------18------18--17--18--17--15--17~~~--|
--------------------------------------------------------|

Synths Behind "Fast Intro"

Synth 1
------------------------|
------8----6------------|
-5--------------8----7--|
------------------------| x 2
------------------------|
------------------------|

-----|
-8~~-|
-----|
-----|
-----|
-----|

Synth 2
-8---10---11---13--|
-------------------|
-------------------|
-------------------| x 2
-------------------|
-------------------|

-15~~---|
--------|
--------|
--------|
--------|
--------|

Phew! Now it's time for the main theme

Main Theme
-------------------------|
--------------------4~~--|
-5--5--5--5--3--5---3~~--|
-5--5--5--5--3--5--------|
-------------------------|
-------------------------|

--------------------------------------|
-------------------------9~~----8~~---|
-10--10--10--10--8--10---8~~----7~~---|
-10--10--10--10--8--10----------------|
--------------------------------------|
--------------------------------------|

-------------------------|
--------------------4~~--|
-5--5--5--5--3--5---3~~--|
-5--5--5--5--3--5--------|
-------------------------|
-------------------------|

---------------------------------------|
-------------------------9~~----11~~---|
-10--10--10--10--8--10---8~~----10~~---|
-10--10--10--10--8--10-----------------|
---------------------------------------|
---------------------------------------|

Repeat Main Theme

Another Fast Fill
----------------------------------------------|
----------------------------------------------|
-12--10--8--12--10---8--12--10--8--12--10--8--|
----------------------------------------------|
----------------------------------------------|
----------------------------------------------|

-----------------------------------------|
-9---------9---------9---------9---------|
----10--8-----10--8-----10--8-----10--8--|
-----------------------------------------|
-----------------------------------------|
-----------------------------------------|

-----------------------------------------------|
-11----------11---------11----------11---------|
------10--8------10--8-------10--8------10--8--|
-----------------------------------------------|
-----------------------------------------------|
-----------------------------------------------|

--------------------------------------------|
-12--8------12--8------12--8-----12--8------|
--------10---------10--------10---------10--|
--------------------------------------------|
--------------------------------------------|
--------------------------------------------|

Rythem Fill
--------------------------|
----------4~--------------|
-5--3--5--3~---6--5--3--5-|
-5--3--5-------6--5--3--5-|
--------------------------|
--------------------------|

--------------------------------|
--------------------------------|
---------------5~------3---5~~--|
-5~---6--5--6--5~---6--3---5~~--|
-5~---6--5--6-------6-----------|
--------------------------------|

Repeat Rythem Fill

Synth Behind "Rythem Fill"
--------------------------|
-------20~~---18~~---20~~-|
-17~~---------------------|
--------------------------|
--------------------------|
--------------------------|

Repeat --- Times

Have Fun!
VGJam Tabs Mega Man X3 - "Crush Crawfish"
Tabs database last modified Tuesday, 01-Nov-2016 19:14:53 UTC.
Copyright © 1999 - 2016 VideoGameJam.com. All rights reserved.