VGJam Tabs Mega Man X3
Mega Man X3
"Gravity Beetle" - Guitar tab
Platform(s):Super NES
Tabbed by:Cryptopsy911
Last modified:2002-07-18
Print it:Original file (.TXT)
Hear it:MIDI file
Tabbed By: Cryptopsy911
Song: Megaman X3 - Gravity Beetle Stage
System: SNES

Tabbed an Octave lower than original

Tune to E

--------------------------------------------------|
----------3~~-----/6~--5~----4~-----4h6p4h6-------|
-0h2h3h5-------0----------0-------------------7~~-|
--------------------------------------------------|
--------------------------------------------------|
--------------------------------------------------|

--------------------------------------|
----------------3~~-------------------|
-/5--3~----2h3-------5~~----3h5--2~~--|
--------------------------------------|
--------------------------------------|
--------------------------------------|

--------------------------------------------------|
----------3~~-----/6~--5~----4~-----4h6p4h6-------|
-0h2h3h5-------0----------0-------------------7~~-|
--------------------------------------------------|
--------------------------------------------------|
--------------------------------------------------|

----------------1~~--3~~--5~~--/6--8--10~~--|
--------------------------------------------|
-/5--3~----2h3------------------------------|
--------------------------------------------|
--------------------------------------------|
--------------------------------------------|

-8~~----6p5p3~~----5----------------|
----------------------6--3----------|
-----------------------------/5--3--|
------------------------------------|
------------------------------------|
------------------------------------|

-10~~--8~~--6--6~~---------------------------|
--------------------8~~----/6----------------|
-------------------------------8--7~~--5--7--|
---------------------------------------------|
---------------------------------------------|
---------------------------------------------|

-10~~--8~~----6p5p3~~----5--------------|
----------------------------6--3--------|
----------------------------------/5--3-|
----------------------------------------|
----------------------------------------|
----------------------------------------|

-10~~--8~~----6p5p3~~--|
-----------------------|
-----------------------|
-----------------------|
-----------------------|
-----------------------|

Repeat XXX times

A great song, also a great game!

Have Fun!
VGJam Tabs Mega Man X3 - "Gravity Beetle"
Tabs database last modified Tuesday, 01-Nov-2016 19:14:53 UTC.
Copyright © 1999 - 2016 VideoGameJam.com. All rights reserved.