VGJam Tabs Mega Man X3
Mega Man X3
"Toxic Seahorse" - Guitar tab
Platform(s):Super NES
Tabbed by:Deezer
Last modified:1999-07-06
Print it:Original file (.TXT)
Hear it:MIDI file
#----------------------------------PLEASE NOTE--------------------------------#
#This file is the author's own work and represents their interpretation of the#
#song. You may only use this file for private study, scholarship, or research.#
#-----------------------------------------------------------------------------#

Mega Man X3 (Super NES)
"Toxic Seahorse stage"

Originally composed by: ?
------------------------------------------------------------------------------
Tabbed by: Deezer (deezer@usa.net)
For http://www.kontek.net/vgjam/
------------------------------------------------------------------------------

This is only the rhythm guitar's part. I'll tab the lead some other time.

Tuning - Down 1/2 step: (low to high) EbAbDbGbBbeb


Riff 1:
=======
    Eb5 F5  Eb5   F5   B5              D5
eb|---------------------------------------|
Bb|---------------------------------------|
Gb|---------------------------------------|
Db|---------------------------------------|
Ab|--7--9----7----9----3----3--3----3--6--|
Eb|--7--9----7----9----3----3--3----3--6--|


Riff 2:
=======
    Eb5 F5  Eb5   F5   B5              Bb5
eb|---------------------------------------|
Bb|---------------------------------------|
Gb|---------------------------------------|
Db|---------------------------------------|
Ab|--7--9----7----9----3----3--3----3--2--|
Eb|--7--9----7----9----3----3--3----3--2--|


Riff 3:
=======
    Eb5              Bb5              N.C.
eb|------------------------------------------|
Bb|------------------------------------------|
Gb|------------------------------------------|
Db|------------------------------------------|
Ab|--2--2----2--2----2----2--2----2---4---6--|
Eb|--0--0----0--0----2----2--2----2---3---5--|


Riff 4:
=======
    Eb5                 B5                N.C.
eb|--------------------------------------------------------------------------|
Bb|--------------------------------------------------------------------------|
Gb|--------------------------------------------------------------------------|
Db|---------------------------------------7--7--7----7--7----4--4--4----4--4-|
Ab|-7--7--7----7--7----3--3--3----3--3----6--6--6----6--6----6--6--6----6--6-|
Eb|-7--7--7----7--7----3--3--3----3--3---------------------------------------|


Play Riff 1 x1
Riff 2 x4
Riff 3 x1
Riff 2 x3
Riff 3 x1
Riff 4 x2
Then


     Ab5                                   N.C.
eb|--------------------------------------------------------------|
Bb|--------------------------------------------------------------|
Gb|--7--7--7----7--7----7--7--7----7--7----6--6--6----6--6----6--|
Db|--7--7--7----7--7----7--7--7----7--7----7--7--7----7--7----7--|
Ab|--------------------------------------------------------------|
Eb|--------------------------------------------------------------|


     N.C.
eb|----------------------|
Bb|----------------------|
Gb|--2--2--2--2--2----2--|
Db|----------------------|
Ab|--2--2--2--2--2----2--|
Eb|----------------------|


Then back to the beginning.


Last revised: 7/6/99

VGJam Tabs Mega Man X3 - "Toxic Seahorse"
Tabs database last modified Tuesday, 01-Nov-2016 19:14:53 UTC.
Copyright © 1999 - 2016 VideoGameJam.com. All rights reserved.