VGJam Tabs Mega Man X3
Mega Man X3
"Toxic Seahorse" - Guitar tab
Platform(s):Super NES
Tabbed by:David Leubner
Last modified:2002-07-10
Print it:Original file (.TXT)
Hear it:MIDI file
SNES - Mega Man X3 - Toxic Seahorse

Copyright  Capcom
-------------------------------------
Tabbed by: David Leubner (nocturnefrost@nanaseaikawa.com)
-------------

Tuning - Standard
You could probably tune down 1/2 step if you want, but this seems fine.
Oh yeah, and listen to it and figure out when to play the stuff.


Rhythm
--------
|---------------------------------------|
|---------------------------------------|
|---------------------------------------|
|---------------------------------------|
|--7--9----7----9----3----3--3----3--6--|
|--7--9----7----9----3----3--3----3--6--|

|---------------------------------------|
|---------------------------------------|
|---------------------------------------|
|---------------------------------------|
|--7--9----7----9----3----3--3----3--2--|
|--7--9----7----9----3----3--3----3--2--|

|------------------------------------------|
|------------------------------------------|
|------------------------------------------|
|------------------------------------------|
|--2--2----2--2----2----2--2----2---4---6--|
|--0--0----0--0----2----2--2----2---3---5--|

|--------------------------------------------------------------------------|
|--------------------------------------------------------------------------|
|--------------------------------------------------------------------------|
|---------------------------------------7--7--7----7--7----4--4--4----4--4-|
|-7--7--7----7--7----3--3--3----3--3----6--6--6----6--6----6--6--6----6--6-|
|-7--7--7----7--7----3--3--3----3--3---------------------------------------|

|--------------------------------------------------------------|
|--------------------------------------------------------------|
|--7--7--7----7--7----7--7--7----7--7----6--6--6----6--6----6--|
|--7--7--7----7--7----7--7--7----7--7----7--7--7----7--7----7--|
|--------------------------------------------------------------|
|--------------------------------------------------------------|

|----------------------|
|----------------------|
|--2--2--2--2--2----2--|
|----------------------|
|----------------------|
|----------------------|



Lead
------
E|------------11---------14--|----13--11-----11--9-----11--|
B|--11---------------11------|-----------------------------|
G|---------------------------|-----------------------------|
D|---------------------------|-----------------------------|
A|---------------------------|-----------------------------|
E|---------------------------|-----------------------------|

|----------------------|-----------------------------|-------------6-----7--11--|
|------------11-----9--|--------------------------7--|-------9------------------|
|----------------------|--11--10-----8-----10--------|--------------------------|
|----------------------|-----------------------------|--------------------------|
|----------------------|-----------------------------|--------------------------|
|----------------------|-----------------------------|--------------------------|

|----18--18--18--18--16-----14--|--13--------16-----14--13--|
|-------------------------------|---------------------------|
|-------------------------------|---------------------------|
|-------------------------------|---------------------------|
|-------------------------------|---------------------------|
|-------------------------------|---------------------------|

|--------------------------13---|--14--13-----14----------|
|----15--15-----15---16---------|-------------------------|
|-------------------------------|-------------------------|
|-------------------------------|-------------------------|
|-------------------------------|-------------------------|
|-------------------------------|-------------------------|

|----11--11-----11--13------|--14--13-----14-----18-----16--|
|---------------------------|-------------------------------|
|---------------------------|-------------------------------|
|---------------------------|-------------------------------|
|---------------------------|-------------------------------|
|---------------------------|-------------------------------|

|----14-----13-----11-----13--|--14-16-18----16-18----16-18----16-18-|
|-----------------------------|-----------19-------19-------19-------|
|-----------------------------|--------------------------------------|
|-----------------------------|--------------------------------------|
|-----------------------------|--------------------------------------|
|-----------------------------|--------------------------------------|

|--22~-----------------|--20--------21-----20--22--|---------22---22~----22~--|
|--------------22~-----|---------------------------|--------------------------|
|----------------------|---------------------------|--------------------------|
|----------------------|---------------------------|--------------------------|
|----------------------|---------------------------|--------------------------|
|----------------------|---------------------------|--------------------------|

|--22~--------------------------|---------------------------|
|-------------------------------|---------------------------|
|-------------------------------|---------------------------|
|--------20---------------------|---------------------------|
|------------22~-----21-----20--|----21--20--21-----18------|
|-------------------------------|---------------------------|

|--19----------------------16--|-------------14----13---|
|------------------------------|------------------------|
|------------------------------|------------------------|
|--------18--16-----18-----15--|------------------------|
|------------------------------|------------------------|
|------------------------------|------------------------|

*You could tap the bottom if you want, but change the 11 and 13 around*


|--14-13-11-14-13-11-14-13-11-14-13-11-|--14-13-11-14-13-11-14-13-11-14-13-11-|
|--------------------------------------|--------------------------------------|
|--------------------------------------|--------------------------------------|
|--------------------------------------|--------------------------------------|
|--------------------------------------|--------------------------------------|
|--------------------------------------|--------------------------------------|

|--16-14-13-13-11-10-10---11----13---|--13---14----16---16---14----13---|
|------------------------------------|----------------------------------|
|------------------------------------|----------------------------------|
|------------------------------------|----------------------------------|
|------------------------------------|----------------------------------|
|------------------------------------|----------------------------------|

|--16----------------|----------16---18----16---|--15----------------|
|--------------------|--------------------------|--------------------|
|--------------------|--------------------------|--------------------|
|--------------------|--------------------------|--------------------|
|--------------------|--------------------------|--------------------|
|--------------------|--------------------------|--------------------|

|----14--13--11----------------|
|----------------11--9---------|
|--------------------------11--|
|------------------------------|
|------------------------------|
|------------------------------|
VGJam Tabs Mega Man X3 - "Toxic Seahorse"
Tabs database last modified Tuesday, 01-Nov-2016 19:14:53 UTC.
Copyright © 1999 - 2016 VideoGameJam.com. All rights reserved.