VGJam Tabs Mortal Kombat II
Mortal Kombat II
"Choose your fighter" - Guitar tab
Platform(s):Super NES
Tabbed by:Cryptopsy911
Last modified:2002-07-18
Print it:Original file (.TXT)
Hear it:MIDI file
Tabbed By: Cryptopsy911
Song: Mortal Kombat 2 - Choose your fighter
System: SNES


-------------3----------|
-5--5--3--5--3--5--3--5-|
-4--4--2--4-----4--2--4-|
------------------------|
------------------------|
------------------------|

-------------3-----------|
-5--5--3--5--3---5--3----|
-4--4--2--4------4--2--4-|
-----------------------4-|
-------------------------|
-------------------------|

Repeat XXX times

Have Fun!
VGJam Tabs Mortal Kombat II - "Choose your fighter"
Tabs database last modified Tuesday, 01-Nov-2016 19:14:53 UTC.
Copyright © 1999 - 2016 VideoGameJam.com. All rights reserved.