VGJam Tabs Final Fantasy X
Final Fantasy X
"Song of Prayer" - Guitar tab
Platform(s):PlayStation 2
Composed by:Nobuo Uematsu, Masashi Hamauzu, Junya Nakano
Soundtrack:Final Fantasy X Original Soundtrack [SSCX-10054~7] (track D1-20)
Tabbed by:Eric Peterson
Last modified:2003-01-30
Print it:Original file (.TXT)
Platform: Playstation II
Game: Final Fantasy X
Title: Song of Prayer
From: Final Fantasy X
Tabber: Eric Peterson
Contact: onewingedangel02@attbi.com

Notes:
Pretty simple song...  This is my arrangement...  It's not gonna be 
exactly like the song...  
If you want to hear a sample, a link is provided at the bottom.  Contact
 me for questions...  

|-----------------------------------------------------------|
|-----------------------------------------------------------|
|-------------------------------4~/6-6-2-4~~----------------|
|------------7~~--7-5--7/9---------------------7\5-7h9------|
|---7/10--9--5~~\3~~~~~---7~~-------------------------7v~---|
|-0~~~~~~~~~~-------------0~~-3~~~/5-5-2-3~~--0~~~~~~~~~~~--|

|-------------------------------------------12^-------------|
|-5-5--7-7--8--8~---7-3-3/5-5~~-------------12^-------------|
|-----------------------------------------------------------|
|-----------------------------------------------------------|
|-7~~--5~~--8~~~~---5-2-2/3-3~~-----------------------------|
|--------------------------------0~~~~~~~~~~~~~~~~~~--------|


Key:
 ~ Hold or let ring
 / Slide up
 \ Slide Down
 v Vibrato
 h hammer-down
 ^ harmonics

Mp3 file: http://www.yoshigaki.net/music/songofprayer.mp3 --- approx. 831kb

VGJam Tabs Final Fantasy X - "Song of Prayer"
Tabs database last modified Tuesday, 01-Nov-2016 19:14:53 UTC.
Copyright © 1999 - 2016 VideoGameJam.com. All rights reserved.