VGJam Tabs Radical Dreamers
Radical Dreamers
"Epilogue" - Guitar tab
Platform(s):Super NES
Composed by:Yasunori Mitsuda
Tabbed by:Paul Hasas
Last modified:2002-09-04
Print it:Original file (.TXT)
Hear it:MIDI file
Title: Epilogue
Game: Radical Dreamers (SNES)
Composer: Yasunori Mitsuda

Tablature by Paul Hasas (bigbadw4lf@hotmail.com)


Key:
/ = slide up
\ = slide down
h = hammer-on
p = pull-off



GUITAR 1: BACKUP; CLASSICAL NYLON-STRING

Slow, free-flowing.  No real time signature until the end.
Bars are added only to indicate background synth's chord changes.


Intro

e||------------------5-------------|----------------------------|
B||------------8------------5------|-----6---5------------------|
G||--------7-----------------------|---------------5---7--------|
D||-----7--------------------------|---------------------7------|
A||--------------------------------|----------------------------|
E||--------------------------------|----------------------------|


e|--------------------------------|-------------------------10------7----|
B|-------------------8----5-------|-----7-7---8-8---10-10----------------|
G|------------5-------------------|--------------------------------------|
D|-----5--7-----------------------|--------------------------------------|
A|--------------------------------|--------------------------------------|
E|--------------------------------|--------------------------------------|


e|----10----8-------7----8--------|-------------------------------|
B|--------------------------------|------------------8--8--10-----|
G|--------------------------9-----|---7-7-9-9-10-10---------------|
D|--------------------------------|-------------------------------|
A|--------------------------------|-------------------------------|
E|--------------------------------|-------------------------------|


e|------------------------------|------------------------------|
B|------------------------------|------------------------------|
G|-----9h10p9----------12----9--|-(9)--------------------------|
D|------------------------------|------------------------------|
A|------------------------------|--------------------------10--|
E|------------------------------|------------------------------|


e|--------------------------||
B|--------------------------||
G|--------------------------||
D|--------------------------||
A|-(10)---------------------||
E|--------------------------|| (the synth swells ... )



    4/4 Time
   (Enter piano)
e||--------1--0--------------|--------------------------|
B||--------------------------|--------------------1-----|
G||-----2-----------------2--|--------------0--------0--|
D||--0--------------0--3-----|-----------3-----2--------| Play twice
A||--------------1-----------|-----0--3-----------------|
E||--------------------------|--1-----------------------|


e|--------------------------|-----------------------5--|
B|--------------------1-----|--------------------7-----|
G|--------2--------0-----0--|-----------------7--------|
D|--0--3-----3--2-----------|--------0--4--7-----------|
A|--------------------------|-----0--------------------|
E|--------------------------|--3-----------------------|



e|--------------------------|--------------------------|
B|--------------------1-----|--------------------------|
G|--------2--------0-----0--|-----------0-----------2--|
D|--0--3-----3--2-----------|--------0-----------2-----|
A|--------------------------|-----2-----------4--------|
E|--------------------------|--3-----------5-----------|

					Slow ...
e|--------------------------|--------------------------|
B|--2-----------------------|--2-----------------------|
G|-----2-----------------2--|-----2--------------------|
D|--------2-----------2-----|--------2-----------0--4--|
A|-----------4-----4--------|-----------4-----0--------|
E|--------------5-----------|--------------2-----------|


e|----------------10--------|--------------------------||
B|----------10---10---------|--------------------------||
G|-----7-11-----11----------|--------------------------||
D|--7-----------------------|--------------------------||
A|--------------------------|--------------------------||
E|--------------------------|--------------------------||

VGJam Tabs Radical Dreamers - "Epilogue"
Tabs database last modified Tuesday, 01-Nov-2016 19:14:53 UTC.
Copyright © 1999 - 2016 VideoGameJam.com. All rights reserved.