VGJam Tabs Radical Dreamers
Radical Dreamers
"Intro" - Guitar tab
Platform(s):Super NES
Composed by:Yasunori Mitsuda
Tabbed by:Paul Hasas
Last modified:2002-09-04
Print it:Original file (.TXT)
Hear it:MIDI file
Title: Days of Summer
Game: Radical Dreamers (SNES)
Composer: Yasunori Mitsuda

Tablature by Paul Hasas (bigbadw4lf@hotmail.com)

Key:
/ = slide up
\ = slide down
h = hammer-on
p = pull-off



GUITAR 1: LEAD; FLUTE
(Transcription for Guitar 2 appears farther down)


    (After Guitar 2's intro)
e||-------/10-----------------|--------------------------|
B||---------------------------|-10-----------8-----------|
G||-*------------10-----7h10--|--------------------------|
D||---------------------------|--------------------------|
A||-*-------------------------|--------------------------|
E||---------------------------|--------------------------|


e|------/10-----------------|--------------------------|
B|--------------------------|-10-----------8-----------|
G|-------------10-----7h10--|--------------------------|
D|--------------------------|--------------------------|
A|--------------------------|--------------------------|
E|--------------------------|--------------------------|


e|---------------------------|--------------------------|
B|--------/6-----5-----------|--------------------------|
G|------------------------5--|--5--7-/7-----------------|
D|---------------------------|--------------------------|
A|---------------------------|--------------------------|
E|---------------------------|--------------------------|

______
|1.
e|---------------------------|----------------------------||
B|--------/6-----5--------8--|-/8-------------------------||
G|---------------------------|--------------7-/9--------*-||
D|---------------------------|----------------------------||
A|---------------------------|--------------------------*-||
E|---------------------------|----------------------------||

______
|2.  Slow ...
e||---------------------------|--------------------------|
B||--------/6-----5--------8--|-/8-----------------------|
G||---------------------------|--------------7-/9~-------|
D||---------------------------|--------------------------|
A||---------------------------|--------------------------|
E||---------------------------|--------------------------|


e|--------------------------||
B|--------------------------||
G|-(9)----------------------||
D|--------------------------||
A|--------------------------||
E|--------------------------||



3/4 Time; Tempo picks up

   (After two-measure break)
e||-10-----------9-------8h9--|--8-----------7---5---3----|
B||----------6----------------|---------------------------|
G||---------------------------|---------------------------|
D||---------------------------|---------------------------|
A||---------------------------|---------------------------|
E||---------------------------|---------------------------|


e|--1---3---5---0------1h3p1-|-p0-----------0-------3----|
B|---------------------------|----------3----------------|
G|---------------------------|---------------------------|
D|---------------------------|---------------------------|
A|---------------------------|---------------------------|
E|---------------------------|---------------------------|


e|-10-----------9-------8h9--|--8-----------7---5---3----|
B|----------6----------------|---------------------------|
G|---------------------------|---------------------------|
D|---------------------------|---------------------------|
A|---------------------------|---------------------------|
E|---------------------------|---------------------------|


e|--1---3---5---0------1h3p1-|-p0-----------0------------|
B|---------------------------|----------3-----------3----|
G|---------------------------|---------------------------|
D|---------------------------|---------------------------|
A|---------------------------|---------------------------|
E|---------------------------|---------------------------|


e|---------------------------|---------------------------|
B|--2~-----------------------|-(2)-----------------------|
G|---------------------------|----------------------4----|
D|---------------------------|---------------------------|
A|---------------------------|---------------------------|
E|---------------------------|---------------------------|


e|---------------------------|---------------------------|
B|--2------/7~---------------|-(7)-----------------------|
G|---------------------------|----------------------4----|
D|---------------------------|---------------------------|
A|---------------------------|---------------------------|
E|---------------------------|---------------------------|


e|---------------------------|---------------------------|
B|--2~-----------------------|-(2)-----------------------|
G|---------------------------|----------------------4----|
D|---------------------------|---------------------------|
A|---------------------------|---------------------------|
E|---------------------------|---------------------------|


e|---------------------------|---------------------------|
B|--2------/7~---------------|-(7)----------7-------9----|
G|---------------------------|---------------------------|
D|---------------------------|---------------------------|
A|---------------------------|---------------------------|
E|---------------------------|---------------------------|


e|---------------------------|---------------------------|
B|-10------------------------|--8----------6h8p6\5---6---|
G|--------------7------------|---------------------------|
D|---------------------------|---------------------------|
A|---------------------------|---------------------------|
E|---------------------------|---------------------------|


e|---------------------------|---------------------------|
B|--8------10----------------|--------------5------------|
G|--------------7------------|--5------------------------|
D|---------------------------|---------------------------|
A|---------------------------|---------------------------|
E|---------------------------|---------------------------|


e|---------------------------|---------------------------|
B|--5~-----------------------|-(5)------------------h6p5-|
G|---------------------------|---------------------------|
D|---------------------------|---------------------------|
A|---------------------------|---------------------------|
E|---------------------------|---------------------------|

				Slow ...
e|---------------------------|---------------------------|
B|-\3~-----------------------|-(3)-----------------------|
G|---------------------------|---------------------------|
D|---------------------------|---------------------------|
A|---------------------------|---------------------------|
E|---------------------------|---------------------------|


e|------/10-----------------|--------------------------||
B|--------------------------|-10~----------------------||
G|-------------10-----7-10--|--------------------------||
D|--------------------------|--------------------------||
A|--------------------------|--------------------------||
E|--------------------------|--------------------------|| fin






GUITAR 2: BACKUP; CLASSICAL NYLON-STRING
Slowly; let ring throughout.

    Intro
e||-------------0--------------|--------0--1--------------|
B||----------3-----------------|--------------------------|
G||-*-----2--------------------|-----2--------------------|
D||----0-----------------------|--0-----------------------|
A||-*--------------------------|--------------------------|
E||----------------------------|--------------------------|

______
|1.
e|--------1--3-----1h3p1p0----|---------------------------||
B|-------------------------3--|--2----0h2-----------------||
G|-----2----------------------|-----2-------------------*-||
D|--0-------------------------|--0------------------------||
A|----------------------------|-------------------------*-||
E|----------------------------|---------------------------||

________
|2.
e||--------------------------||
B||--2----3h2----------------||
G||-----2--------------------||
D||--0-----------------------||
A||--------------------------||
E||--------------------------||



    (Enter flute)
e||----------1--0--------------|--------------------------|
B||----------------------1--3--|--------------------3--1--|
G||-*-----2--------------------|--------0--2-----0--------|
D||----0--------------3--------|--------------------------|
A||-*--------------1-----------|-----3--------3-----------|
E||----------------------------|--1-----------------------|


e|--------1--0--------------|--------------------------|
B|--------------------1--3--|--------------------3--1--|
G|-----2--------------------|--------0--2-----0--------|
D|--0--------------3--------|--------------------------|
A|--------------1-----------|-----3--------3-----------|
E|--------------------------|--1-----------------------|


e|--------------------------|--------------------------|
B|--------1--3--------0--1--|-----------3--------3-----|
G|--------------------------|-----2--0-----2--0-----2--|
D|-----3-----------2--------|--0-----------------------|
A|--1-----------0-----------|--------------------------|
E|--------------------------|--------------------------|

______
|1.
e|--------------------------|----------------------------||
B|--------1--3--------0--1--|-----------0--------3--2----||
G|--------------------------|--------2-----------------*-||
D|-----3-----------2--------|-----0-----------2----------||
A|--1-----------0-----------|--------------0-----------*-||
E|--------------------------|--3-------------------------||

________
|2.  Slow ...
e||--------------------------|--------------------------|
B||-----------0----------0---|--2--3--5--6----8---6-----|
G||--------2-----------2-----|---------------6----------|
D||-----0-----------2--------|--------------7-----------|
A||--------------0-----------|--------------------------|
E||--3-----------------------|--------------------------|


e|--------------------------||
B|----5---------------------||
G|---6----------------------||
D|--7-----------------------||
A|--------------------------||
E|--------------------------||



3/4 Time; Tempo picks up
e||---------------------------|---------------------------|
B||--3-----------2------------|--1-----------2------------|
G||----------2-----------2----|----------2-----------2----|
D||----0h3p0---0---0h3p0---0--|----0h3p0---0---0h3p0---0--|
A||---------------------------|---------------------------|
E||---------------------------|---------------------------| Six times


e|---------------------------|---------------------------|
B|--2-----------2------------|--2-----------2------------|
G|----------4-----------4----|----------4-----------4----|
D|------4-----------4--------|------4-----------4--------|
A|----2---2---2---2---2---2--|----2---2---2---2---2---2--|
E|---------------------------|---------------------------| Four times


e|---------------------------|------------------0--------|
B|----------------------3----|--1---0---1---3-------1----|
G|--2---0---2p0-3p0-5p0------|------------2---2----------|
D|--------0---------------0--|--------2-----------2------|
A|---------------------------|----0-------------------0--|
E|----3----------------------|---------------------------|


e|--------------0---1--------|--0-------0---1---0--------|
B|--3---1---3-----1-----3----|------3---------------1----|
G|------------3-------3------|--------------------0------|
D|--------3---------------3--|---------------------------|
A|----1----------------------|----3---3---3---3-------3--|
E|---------------------------|---------------------------|


e|---------------------------|--0------------------------|
B|--3-----------3------------|--------------3------------|
G|----------2-----------2----|----------2-----------2----|
D|----0h3p0---0---0h3p0---0--|----0h3p0---0---0h3p0---0--|
A|---------------------------|---------------------------|
E|---------------------------|---------------------------|

				Slow ...
e|---------------------------|--0------------------------|
B|--3-----------3------------|--------------3------------|
G|----------2-----------2----|----------2-----------2----|
D|----0h3p0---0---0h3p0---0--|----0h3p0---0---0h3p0---0--|
A|---------------------------|---------------------------|
E|---------------------------|---------------------------|


e|----------------1--------1--|------------------------------||
B|----3----------3------3-----|---5-5-5-5-5-5-5-5-5-5-5-5-~--||
G|---2----------3----2--------|---2-2-2-2-2-2-2-2-2-2-2-2----||
D|--0-------------------------|--3-3-3-3-3-3-3-3-3-3-3-3-----||
A|----------------------------|------------------------------||
E|----------------------------|------------------------------|| fin


VGJam Tabs Radical Dreamers - "Intro"
Tabs database last modified Tuesday, 01-Nov-2016 19:14:53 UTC.
Copyright © 1999 - 2016 VideoGameJam.com. All rights reserved.