VGJam Tabs Rockman and Forte
Rockman and Forte
"Astro Man stage" - Bass tab
Platform(s):Super NES
Tabbed by:Livewire626
Last modified:2002-01-29
Print it:Original file (.TXT)
Title: rockman and forte-astro man (holographic anxiety)
Transcriber: Livewire626
Comments: Bass tab this time. You can really jam out to this!

Tune drop D 1 step down. Low to high: CGCF (Yes, it's neccesary!)

Part I
F|--------------------|------------|--------------------|------------|
C|---3-------12----13-|------6---8-|---3-------12----13-|------8---6-|
G|--------------------|------------|--------------------|------------|
C|-3------12----13----|----6---8---|-3------12----13----|----8---6---|

F|--------------------|------------|--------------------|--------------|
C|---3-------12----13-|------6---8-|---3-------12----13-|------8----10-|
G|--------------------|------------|--------------------|--------------|
C|-3------12----13----|----6---8---|-3------12----13----|----8---10----|

F|--------------------|------------|--------------------|------------|
C|---3-------12----13-|------6---8-|---3-------12----13-|------8---6-|
G|--------------------|------------|--------------------|------------|
C|-3------12----13----|----6---8---|-3------12----13----|----8---6---|

F|--------------------|------------|--------------------|--------------|
C|---3-------12----13-|------6---8-|---3-------12----13-|------8----10-|
G|--------------------|------------|--------------------|--------------|
C|-3------12----13----|----6---8---|-3------12----13----|----8---10----|


Part II
F|----------------------|------------|----------------------|------------|
C|----10-------8-----10-|------6---9-|----10-------8-----11-|------6---9-|
G|----------------------|------------|----------------------|------------|
C|-10-------8-----10----|----6---9---|-10-------8-----11----|----6---9---|

F|----------------------|------------|----------------------|------------|
C|----10-------8-----10-|------6---9-|----10-------8-----10-|------6---9-|
G|----------------------|------------|----------------------|------------|
C|-10-------8-----10----|----6---9---|-10-------8-----10----|----6---9---|


F|----------------|-----------------|----------------|-----------------|
C|---2------0---2-|--------11----12-|---2------0---2-|--------11----12-|
G|----------------|-----------------|----------------|-----------------|
C|-2------0---2---|-----11----12----|-2------0---2---|-----11----12----|


F|--------------------|------------|--------------------|------------|
C|----10------8----10-|------6---9-|----10------8----10-|------6---9-|
G|--------------------|------------|--------------------|------------|
C|-10-------8---10----|----6---9---|-10-------8---10----|----6---9---|

F|--------------------|------------|--------------------|------------|
C|----10------8----10-|------6---9-|----10------8----10-|------6---9-|
G|--------------------|------------|--------------------|------------|
C|-10-------8---10----|----6---9---|-10-------8---10----|----6---9---|


F|----------------|-------------|--------------------|-----------------|
C|---2------0---2-|-------0---2-|---1-------11----12-|--------11----12-|
G|----------------|-------------|--------------------|-----------------|
C|-2------0---2---|-----0---2---|-1------11----12----|-----11----12----|

Then just repeat. Ain't it great?


VGJam Tabs Rockman and Forte - "Astro Man stage"
Tabs database last modified Tuesday, 01-Nov-2016 19:14:53 UTC.
Copyright © 1999 - 2016 VideoGameJam.com. All rights reserved.