VGJam Tabs Rockman and Forte
Rockman and Forte
"Ground Man stage" - Guitar tab
Platform(s):Super NES
Tabbed by:Deezer
Last modified:1998-04-09
Date added:1999-04-11
Print it:Original file (.TXT)
Hear it:MIDI file
#----------------------------------PLEASE NOTE---------------------------------#
#This file is the author's own work and represents their interpretation of the #
#song. You may only use this file for private study, scholarship, or research. #
#------------------------------------------------------------------------------#

Rockman and Forte (Super Famicom (Japan))
"Ground Man stage"

Originally composed by: ?
------------------------------------------------------------------------------
Tabbed by: Deezer (deezer@usa.net)
http://www.kontek.net/vgjam/
------------------------------------------------------------------------------

Standard tuning - EADGBe


  G5                A5                G5                     N.C.
--3----3----3--3----5----5----5--5----3----3----3--3----3----3--
--3----3----3--3----5----5----5--5----3----3----3--3----3----5--
----------------------------------------------------------------
----------------------------------------------------------------
----------------------------------------------------------------
----------------------------------------------------------------

   G5                A5                G5                     D#5

|--3----3----3--3----5----5----5--5----3----3----3--3----3-------|
|--3----3----3--3----5----5----5--5----3----3----3--3----3----4--|
|-------------------------------------------------------------3--|
|----------------------------------------------------------------|
|----------------------------------------------------------------|
|----------------------------------------------------------------| x3

  N.C.                                                     A5
-----------------------------------------3----3----3--3----5----5----5--5--
--5----5----5--5----4----4----4--4----4--5----5----5--5----5----5----5--5--
--5----5----5--5----5----5----5--5----5------------------------------------
---------------------------------------------------------------------------
---------------------------------------------------------------------------
---------------------------------------------------------------------------

  E5                                  N.C.              G#5
--0----0----0--0----0----0----0--0----0----0----0--0-------
--0----0----0--0----0----0----0--0----2----2----2--2----4--
--------------------------------------------------------1--
-----------------------------------------------------------
-----------------------------------------------------------
-----------------------------------------------------------

  G5                A5                G5                     D#5
--3----3----3--3----5----5----5--5----3----3----3--3----3-------
--3----3----3--3----5----5----5--5----3----3----3--3----3----4--
-------------------------------------------------------------3--
----------------------------------------------------------------
----------------------------------------------------------------
----------------------------------------------------------------

  G5                A5                D#5       F5    G5
--3----3----3--3----5----5----5--5--------------1--1--3--
--3----3----3--3----5----5----5--5----4---4--4--1--1--3--
--------------------------------------3---3--3-----------
---------------------------------------------------------
---------------------------------------------------------
---------------------------------------------------------

Repeat from beginning.


Last revised: 4/9/98

VGJam Tabs Rockman and Forte - "Ground Man stage"
Tabs database last modified Tuesday, 01-Nov-2016 19:14:53 UTC.
Copyright © 1999 - 2016 VideoGameJam.com. All rights reserved.