VGJam Tabs Secret of Evermore
Secret of Evermore
"Halls of Collosia" - Guitar tab
Platform(s):Super NES
Composed by:Jeremy Soule, Julian Soule
Tabbed by:Jon "Jesus" Insco
Last modified:2007-03-22
Print it:Original file (.TXT)
Hear it:MIDI file
Game:       Secret of Evermore (for SNES)
Title:      Halls of Collosia
Composer:   Jeremy Soule
Tabbed by:  Jon "Jesus" Insco (silenceofdaylight@yahoo.com)


This is my first tab submission.  This is a very enchanting melody that I have always liked.. Hope you like it, too.

I was going to tab this out so that the lead parts matched up with the rhythms, but that would take a ridiculous amount of time and space, so I just added the essentials.  I still tried to show timing with the leads, but it isn't completely accurate and not too difficult to figure out anyway.


4/4 time, quarter notes are ~126 bpm



Rhythm  1(all notes in rhythm are 8th notes)

|----------------0--------------------------|
|-------------------3--------2--------3-----|
|-------0-----4-----------0--------0--------|repeat 4x
|----------4-----------4--------4--------4--|
|----2--------------------------------------|
|-0-----------------------------------------|

Then the lead comes in (rhythm repeats 8 times with this)

|-------------------------------|-------------------12----------|
|-----------------10------------|----------------12----12~~~~~~-|
|------------9-11----11~~~~~~~~-|-------------14----------------|
|----------9--------------------|-------12-14-------------------|
|--9-10-12----------------------|-12-14-------------------------|
|-------------------------------|-------------------------------|


|-------------------12----------|-------------------------------|
|----------------15----15~~~~~~-|-14h15p14~~~~~~~~--------------|
|----------12-14----------------|------------------14~~~~~~-----|
|----12-14----------------------|-------------------------------|
|-14----------------------------|-------------------------------|
|-------------------------------|-------------------------------|


|-------------------------------|-------------------------------|
|-------------------------------|-------------------------------|
|-------------------------------|-------------------------------|
|-14----------12-----------11---|------------------14-----------|
|-------------------------------|----12----14-------------------|
|-------------------------------|-------------------------------|


|-------------------------------|-------------------------------|
|----------12-------------------|-------------------12--14--15--|
|-------14----------------------|---------------14--------------|
|-------------------------------|-------------------------------|
|-------------------------------|-------------------------------|
|-------------------------------|-------------------------------|


|-------------------------------|-------------------------------|
|-14-----------------12---------|-------------------------12----|
|----------14---------------11--|-------------------------------|
|-------------------------------|-------------14----------------|
|-------------------------------|-14----------------------------|
|-------------------------------|-------------------------------|


|-------------------------------|
|----------------------11-------|
|-14--12--11--14--12------------|
|----------------------------12-|
|-------------------------------|
|-------------------------------|


Rhythm then switches to this (plays 4 times)

|-------------------------------------------|
|----------------1--------------------------|
|----0--------0-----3--------2--------3-----|
|-------1--0-----------0--1-----0--1-----0--|
|-3-----------------------------------------|
|-------------------------------------------|


Lead over this part

|-------------------13----------|-------------------------------|
|-------------13-15----15~~~~~~-|-------------------13----------|
|----------12-------------------|-------------10-12----12~~~~~~-|
|-12-13-15----------------------|----------10-------------------|
|-------------------------------|----10-13----------------------|
|-------------------------------|-13----------------------------|


|-------------------------------|-------------------------------|
|----------------11-13-11~~~~~~-|-10h11p10~~~~~~~~~~~~----------|
|-------------10----------------|----------------------10~~~~~~-|
|-------10-13-------------------|-------------------------------|
|-10-13-------------------------|-------------------------------|
|-------------------------------|-------------------------------|


|-------------------------------|-------------------------------|
|-------------------------------|-------------------------------|
|-------------------------------|--------12---------------------|
|---13----------12--------------|-------------------------------|
|---------------------------13--|-------------------------------|
|-------------------------------|-------------------------------|


Another Rhythm switch (played 4 times)

|-------------0--3--------2--------3-----|
|-------1--0--------0--1-----0--1-----0--|
|----------------------------------------|
|----2-----------------------------------|
|-0--------------------------------------|
|----------------------------------------|


Lead over that

|-------------------------------|-------------------------------|
|-12~~~~~~~~~~~-----------------|-------------------------------|
|-------------------------------|-------------------------------|
|-------------------------------|--------14---------------------|
|-------------------------------|-------------------------------|
|-------------------------------|-------------------------------|


|-------------------------------|-------------------------------|
|-------------------------------|------------------------12-----|
|-14~~~~~~~~~~~~~~~~~~~~~-------|-11----------------------------|
|-------------------------------|-------------------------------|
|-------------------------------|-------------------------------|
|-------------------------------|-------------------------------|


|-------------------------------|------------10~~~~~~~~~~~------|
|-------------------------------|-------------------------------|
|-------------------------------|--14---------------------------|
|--------------------14---------|-------------------------------|
|-------------------------------|-------------------------------|
|-------------------------------|-------------------------------|


Yet another rhythm change (played 4 times)

|-------------0--5--3--------2--------3-----|
|-------1--0-----------0--1-----0--1-----0--|
|----2--------------------------------------|
|-0-----------------------------------------|
|-------------------------------------------|
|-------------------------------------------|


Lead for this part

|-------------------------|-------------------------------------|
|-------------15----------|----------------------------13-------|
|----------14----14~~~~~~-|-------14----------------12----12~~~-|
|----12-14----------------|-12-14----14-12----12-14-------------|
|-12----------------------|----------------12-------------------|
|-------------------------|-------------------------------------|


|---------------------------------------|-------------12~~~~~~~-|
|---------------------------------------|-----------------------|
|----------11-12-14-11-12---------11----|----------14-----------|
|----12-14------------------12-14----14-|----12-14--------------|
|-12---------------------12-------------|-12--------------------|
|---------------------------------------|-----------------------|


|---14----12h14h15~~~~~~~~~~~~~-|---14----12~~~~~~~~~~~~~~~~~~~-|
|-------------------------------|-------------------------------|
|-------------------------------|-------------------------------|
|-------------------------------|-------------------------------|
|-------------------------------|-------------------------------|
|-------------------------------|-------------------------------|

Repeat from the beginning.

VGJam Tabs Secret of Evermore - "Halls of Collosia"
Tabs database last modified Tuesday, 01-Nov-2016 19:14:53 UTC.
Copyright © 1999 - 2016 VideoGameJam.com. All rights reserved.