VGJam Tabs Secret of Evermore
Secret of Evermore
"Merchant Theme" - Guitar tab
Platform(s):Super NES
Composed by:Jeremy Soule, Julian Soule
Tabbed by:Keith Veilleux
Last modified:2004-06-29
Print it:Original file (.TXT)
Hear it:MIDI file
SECRET OF EVERMORE
Super NES
Merchant Theme

Listen to the MIDI to get a feel for the speed of this piece. 
It's a great RH workout. 

Tab by Keith Veilleux: vay_ix@hotmail.com
Composed by: Jeremy Soule



4/4 time
quarter note = about 100 bpm

e|-------------------------0----------------|--------------------------------------5---
B|-----1---------3-------------------0------|-----1-----------------------------5------
G|----------------------------2-------------|---------------1------------2---5---------
D|--------2---------3-------------------0---|--------2---------0------2----------------
A|--0---------2---------3-------------------|--0-------------------0-------------------
E|--|--|--|---|--|--|---|--|--|---4--|--|---|------------0-----------------------------
    |__|__|   |__|__|   |__|__|   |__|__|      simile
       3         3         3         3    


e|-----0---------1---------3---------0------|-----1---------1---------0----------------
B|----------------------------0-------------|----------------------------3---0---------
G|--------0---------2-------------------0---|--------2---------2----------------1------
D|------------0---------2-------------------|--0---------1---------2---------------2---
A|--3-----------------------------3---------|------------------------------------------
E|------------------------------------------|------------------------------------------


e|-------------------------0----------------|------------------------------------------
B|-----1---------3-------------------0------|-----1---------0----------------------1---
G|----------------------------2-------------|-------------------------2---------2------
D|--------2---------3-------------------0---|--------2---------0-------------2---------
A|--0---------2---------3-------------------|--0-------------------0-----3-------------
E|--------------------------------4---------|------------0-----------------------------


e|-----5---------1---------3---------0------|-----1-------------------0----------------
B|----------------------------0-------------|---------------3-------------------1------
G|--------5---------2-------------------0---|--------2-------------------2-------------
D|--3---------0---------2-------------------|--0---------------3-------------------2---
A|--------------------------------3---------|------------2---------3---------0---------
E|------------------------------------------|------------------------------------------


e|------------------------------------------|-----------------------------------0--3---
B|-----3---------0---------1----------------|---------------0----------------1---------
G|-----------------------------------2------|-----2----------------------0-------------
D|--------3---------0---------2-------------|------------------0------2----------------
A|--2-------------------0---------------3---|--------3-------------3-------------------
E|------------4-------------------0---------|--1---------3-----------------------------


					    5/4 time
e|-----7---------8---------5---------7------|-----3---------5---------1---------0---------------
B|------------------------------------------|--------0-------------------0---------0---------0--
G|--------7---------5---------5---------7---|------------------5-----------------------1--2-----
D|--6---------7---------4---------5---------|--2---------3---------1---------2------------------
A|------------------------------------------|---------------------------------------------------
E|------------------------------------------|---------------------------------------------------


4/4 time
e|-----1---------1---------0---------0------|-------------------------------------------||
B|------------------0-----------------------|-----3---------3---------1------------0----||
G|--------2-------------------0---------2---|------------------1---------2------1------o||
D|--0---------------------------------------|--------3-----------------------0---------o||
A|----------------------3-------------------|--2----------------------------------------||
E|------------3-------------------1---------|------------0---------1---------0----------||

VGJam Tabs Secret of Evermore - "Merchant Theme"
Tabs database last modified Tuesday, 01-Nov-2016 19:14:53 UTC.
Copyright © 1999 - 2016 VideoGameJam.com. All rights reserved.