VGJam Tabs Secret of Mana
Secret of Mana
"Fear of the Heavens" - Guitar, Bass tab
Platform(s):Super NES
Composed by:Hiroki Kikuta
Soundtrack:Seiken Densetsu 2 Original Sound Version (track 01)
Tabbed by:sko
Last modified:2003-03-02
Print it:Original file (.TXT)
Hear it:MIDI file
snes - secret of mana - "fear of the heavens" by hiroki kikuta
tabbed by sko
email: djserkan@t-online.de

hereŽs the som main theme!

part 1


gtr. 1
melody(piano)

e--12~------15~~-8--10~--10--12-------12~-----15~~--------
h------10~-----------------------10~~-----10~-------------
g---------------------------------------------------------
d---------------------------------------------------------
a---------------------------------------------------------
e---------------------------------------------------------

e--8--10--12--10--8--10~~--12--13~------17~~-13--15-------
h----------------------------------13~--------------17-15-
g---------------------------------------------------------
d---------------------------------------------------------
a---------------------------------------------------------
e---------------------------------------------------------

e---------------------------------------------------------
h--17-----------16----------------------------------------
g------17~~-17-----17--15--17--12~--10--12~~--------------
d---------------------------------------------------------
a---------------------------------------------------------
e---------------------------------------------------------


gtr. 2
background(strings)

e-------2--2h3p2-------------------------------------------
h--1----3--3-----3-------1----------3--------3-------------
g--2----2----------------2----------3--3--2--0-------------
d--2----0----------------2----0--2--3--------3-------------
a--0-----------------2---0----------1--------1-------------
e--------------------3-------------------------------------

e---------------------------------------3------------------
h------10----------5---------4----------3------------------
g------10----------5---------3----------0------------------
d---5--10----5--3--5------0--1--3-------0------------------
a---7---8----7--5--3---3-----3--3----3--x------------------
e-------------------------------1----4--3------------------


part 2
melody and background of part 1 continue

gtr. 3


e--17----------15--17----------19--17--------------14-----
h------15--17----------15--17----------13--15--17---------
g---------------------------------------------------------
d---------------------------------------------------------
a---------------------------------------------------------
e---------------------------------------------------------

e--------------17----------15--17----------20--18---------
h--15--13--17------15--17----------15--17----------17--18-
g---------------------------------------------------------
d---------------------------------------------------------
a---------------------------------------------------------
e---------------------------------------------------------

e------18--------------17--------------17-----------------
h--20------17--18--20------18--20----------18--20---------
g----------------------------------19--------------19-----
d---------------------------------------------------------
a---------------------------------------------------------
e---------------------------------------------------------

e--------------------------------------------------20-----
h--20--------------20--------------------------18------20-
g------19--17--15------17--19------20------17-------------
d------------------------------17------20-----------------
a---------------------------------------------------------
e---------------------------------------------------------

e--18------20----18----15---------------------------------
h-------------20----18----15------------------------------
g------17-------------------------------------------------
d---------------------------------------------------------
a---------------------------------------------------------
e---------------------------------------------------------


bass (part 2&3)

g-------------9--7---------------------5------10--9--7-----------
d---------10--------9---------------7-----8-------------10-------
a--0--10---------------10--7--0--7-------------------------------
e----------------------------------------------------------------

g----------------5-----------------------------------------------
d--9----------------5-----6--8---------10--------10---------12---  not absolutely sure about
a-----10--7------------6---------5-------------10---------12-----  those fast ones 
e------------8----------------------8------8-10------10-12-------  (i'm not a bass owner ;))

(part 3)
g--12----12----12----12-------------------------------------------------
d----------------------------7----7------7----7-------7----7-----7------
a-----------------------------------------------------------------------
e------1-----1----1------1------5----5-5---5-----5-5-----5---5-5----5---

g------------12---12---12-----12-----14---------14----------14----------
d---------12---------------------------14---------14----------14--------
a-------12--------------------------------0-0--------0-0--------0-0-----
e--10-12--------1----1-----1-----1--------------------------------------

g--14-------14-------14--------14-------14------------------------------
d----14-------14-------14--------14-------14----------------------------
a-------0-0------0-0------0-0-------0-0-------12--10--8-----------------
e-----------------------------------------------------------------------

g--------------------5--7----------------------------------
d-----------------5----------------------------------------
a--7--5--------2---------------0---------------------------
e--------3--5----------------------------------------------

the choir and piano stuff in part 3 is abit hard to figure out, maybe iŽll complete it sometime else.

VGJam Tabs Secret of Mana - "Fear of the Heavens"
Tabs database last modified Tuesday, 01-Nov-2016 19:14:53 UTC.
Copyright © 1999 - 2016 VideoGameJam.com. All rights reserved.