VGJam Tabs Final Fantasy X
Final Fantasy X
"Jecht's Theme" - Guitar tab
Platform(s):PlayStation 2
Composed by:Nobuo Uematsu, Masashi Hamauzu, Junya Nakano
Soundtrack:Final Fantasy X Original Soundtrack [SSCX-10054~7] (track D3-02)
Tabbed by:Tom Oliphant
Last modified:2005-02-20
Print it:Original file (.TXT)
Jehcts Theme (Disk 3, song 2)
Final Fantasy X on the Playstation 2.
Composed by Nobou Uematsu.
Tabbed by Tom Oliphant.
ironfistfaqs@yahoo.com

Guitar 1:
E|-------0---|-------0---|-------0---------------------------------
B|-----0---3-|-3-3-----3-|-----0---3-2-3-2-0-----------------------
G|-0-1-------|-1-1---1-1-|-0-1-----------------0-1-----------------
D|-----------|-----------|-------------------2---------------------
A|-----------|-----------|-----------------------------------------
E|-----------|-----------|-----------------------------------------

E|-------0---|--------0---|-------0--------------------------------
B|-----0---3-|-3-3--3---3-|-----0---3-2-3-2---0--------------------
G|-0-1-------|-1-1--1-1-1-|-0-1-------------------0-1--------------
D|-----------|------------|---------------------2------------------
A|-----------|------------|----------------------------------------
E|-----------|------------|----------------------------------------

E|-----0-2-0-|------------|-----0-2-0--2-3-2-0---------------------
B|-1-2-------|-2-2----3-2-|-1-2--------2-2-2-2---1-2---------------
G|-----------|-0-0----0-0-|--------------------2-------------------
D|-----------|------------|----------------------------------------
A|-----------|------------|----------------------------------------
E|-----------|------------|----------------------------------------

E|-------0---|-0-0---0-0-|-------0---------------------------------
B|-----0---3-|-3-3---2-3-|-----0---3-2-3-2-0-----------------------
G|-0-1-------|-1-1---1-1-|-0-1-----------------0-1-----------------
D|-----------|-----------|-------------------2---------------------
A|-----------|-----------|-----------------------------------------
E|-----------|-----------|-----------------------------------------

E|-----2----2-----2--5-5--4-2-2--4---0-2-0--2-3-2-0-2-3-3-2-0--2---
B|---0----0-----0-----0----0-0----02--------2-2-2-2-2-2-2-2-2--2---
G|-3----3-----3----------------------------------------------------
D|-----------------------------------------------------------------
A|-----------------------------------------------------------------
E|-----------------------------------------------------------------

E|-------0---|-----------|-------0---------------------------------
B|-----0---3-|-3---3-----|-----0---3-2-3-2-0-----0-----------------
G|-0-1-------|-0h1-1-----|-0-1-----------------3-------------------
D|-----------|-----------|-------------------2---------------------
A|-----------|-----------|-----------------------------------------
E|-----------|-----------|-----------------------------------------

Play guitar 2 and guitar 1 at the same time:

Guitar 2
E|-6s7-5-3-0------0-3--5--0-0--|--6s7-5-3-0---0-3--5--0-0----------
B|-----------------------------|-----------------------------------
G|-----------------------------|-----------------------------------
D|-----------------------------|-----------------------------------
A|-----------------------------|-----------------------------------
E|-----------------------------|-----------------------------------
Guitar 1
E|-----------0-----0-----0-----0-------0-------0-----0------0------
B|---------3-----3-----3-----3-------3-------3-----3------3--------
G|-------1-----1-----1-----1-------1-------1-----1------1----------
D|-----------------------------------------------------------------
A|-----------------------------------------------------------------
E|-----------------------------------------------------------------

Guitar 2
E|-11s12--7--3-0-0---|--11s12--7--3-0-0--|-6s7---0----12-|---------
B|-------------------|-------------------|-----3------12-|---------
G|-------------------|-------------------|---------------|---------
D|-------------------|-------------------|---------------|---------
A|-------------------|-------------------|---------------|---------
E|-------------------|-------------------|---------------|---------
Guitar 1
E|-------0-----------0----------0---------0----------------0------0
B|-----2-----------2----------2---------2----------------3------3--
G|---0-----------0----------0---------0----------------1------1----
D|-----------------------------------------------------------------
A|-----------------------------------------------------------------
E|-----------------------------------------------------------------

Guitar 2
E|-7-7-3--0-------0------------------------------------------------
B|--------------3--------------------------------------------------
G|-----------------------------------------------------------------
D|-----------------------------------------------------------------
A|-----------------------------------------------------------------
E|-----------------------------------------------------------------
Guitar 1
E|--------0-----------0--------------------------------------------
B|------3-----------3----------------------------------------------
G|----1-----------1------------------------------------------------
D|-----------------------------------------------------------------
A|-----------------------------------------------------------------
E|-----------------------------------------------------------------

Guitar 2
E|-2---2---5---5-7--5-2-2----0-0---0------12p10-7--10-5-3--0-----0-
B|-------------------------------3---------------------------0-3---
G|-----------------------------------------------------------------
D|-----------------------------------------------------------------
A|-----------------------------------------------------------------
E|-----------------------------------------------------------------
Guitar 1
E|---------2-----------2--------------0----------------------------
B|-------0-----------0--------------2------------------------------
G|-----2-----------2--------------0--------------------------------
D|-----------------------------------------------------------------
A|-----------------------------------------------------------------
E|-----------------------------------------------------------------

Now just guitar 1 plays again:

Guitar 1
E|---------0-----------0-------------0--------------2--------------
B|-------3-----------3-------------3--------------0----------------
G|-----1-----------1-------------1--------------2------------------
D|-----------------------------------------------------------------
A|-----------------------------------------------------------------
E|-----------------------------------------------------------------

*repeat*

VGJam Tabs Final Fantasy X - "Jecht's Theme"
Tabs database last modified Tuesday, 01-Nov-2016 19:14:53 UTC.
Copyright © 1999 - 2016 VideoGameJam.com. All rights reserved.