VGJam Tabs Secret of Mana
Secret of Mana
"Spirit of the Night" - Guitar tab
Platform(s):Super NES
Composed by:Hiroki Kikuta
Soundtrack:Seiken Densetsu 2 Original Sound Version (track 17)
Tabbed by:Marcus Hynes
Last modified:2000-08-01
Print it:Original file (.TXT)
Hear it:MIDI file
Tabbed By Marcus Hynes ( ozzy_osbourne23@hotmail.com )

Secret of Mana 
 "Banished"

This is a nice tune from SoM that plays when the hero gets
banished from his hometown of Potos, and at other such sad
parts in the story. It sounds best when played clean with a bit
of echo. If you dont have echo, just use light distortion. 


E:-8-8--12-12--7-7--12-12-----------------------
B:--------------------------10-10-8-8--10-13-10-
G:----------------------------------------------
D:----------------------------------------------
A:----------------------------------------------
E:----------------------------------------------

E:----------------------------------------------
B:-10-10--13-13---------------------------------
G:---------------10-10--12-12-------------------
D:-----------------------------14-12-14---------
A:----------------------------------------------
E:----------------------------------------------

E:-8-8--12-12--7-7--12-12-----------------------
B:--------------------------10-10-8-8--10-13-10-
G:----------------------------------------------
D:----------------------------------------------
A:----------------------------------------------
E:----------------------------------------------

E:----------------10-8-7--12-10-13---
B:-8-------8-8-10--------------------
G:---10-10---------------------------
D:-----------------------------------
A:-----------------------------------
E:----------------------------------- repeat this entire section once
                                      the nect part is hard to figure out, and
                                      hopefully I'll have it soon, but this
                                      is a good start, i am positive that what
                                      i have so far is perfect.
VGJam Tabs Secret of Mana - "Spirit of the Night"
Tabs database last modified Tuesday, 01-Nov-2016 19:14:53 UTC.
Copyright © 1999 - 2016 VideoGameJam.com. All rights reserved.