VGJam Tabs Secret of Mana
Secret of Mana
"A Bell is Tolling" - Bass tab
Platform(s):Super NES
Composed by:Hiroki Kikuta
Soundtrack:Seiken Densetsu 2 Original Sound Version (track 25)
Tabbed by:Birdman
Last modified:2001-06-13
Print it:Original file (.TXT)
Hear it:MIDI file
Title:  A Bell is Tolling (Bassline from the Ice Castle music)
Source:  Secret of Mana (Super Nintendo - US)
Composer:  Hiroki Kikuta
Tabbed by:  Birdman (infinite_looop@yahoo.com)


This bassline starts when the drums kick in.  It's a lot of fun to play, even on its own.


G|------5-9-10---9-12-10-9-------|-----5-9-10---9-12-10-9-------|
D|----7--------------------10----|---7--------------------10----|
A|--8-------------------------10-|-8-------------------------10-|
E|-------------------------------|------------------------------|


G|-----------------|--------------|
D|-----------5-----|-0------------|       
A|-7-----------7-5-|-7------------|   Repeat these 4 bars twice.
E|-----------------|--------------|



G|-------------------------|---------------0-------|
D|-----------------------2-|-3-3--2-3-3--2---2-----|
A|-------------------0-3---|-------------------3-2-|
E|-1-1----0-1-1--0-1-------|-----------------------|


G|-------------------------|-2-2--0-2-2--0-4-------|
D|---------------------2-5-|-----------------5-2---|
A|-0-0---------------3-----|---------------------5-|  Repeat these 4 bars twice.
E|------3-5-5----3-5-------|-----------------------|



G|-----------------------|
D|----------------0------|
A|-------2-3-3--2---2----|  Play this ending once, and repeat from beginning.
E|-1-1----------------1--|


VGJam Tabs Secret of Mana - "A Bell is Tolling"
Tabs database last modified Tuesday, 01-Nov-2016 19:14:53 UTC.
Copyright © 1999 - 2016 VideoGameJam.com. All rights reserved.