VGJam Tabs Secret of Mana
Secret of Mana
"The Dark Star" - Guitar tab
Platform(s):Super NES
Composed by:Hiroki Kikuta
Soundtrack:Seiken Densetsu 2 Original Sound Version (track 28)
Tabbed by:sko
Last modified:2003-03-02
Print it:Original file (.TXT)
Hear it:MIDI file
snes - secret of mana - "star of darkness" by hiroki kikuta
tabbed by sko
email: djserkan@t-online.de

hi there, here's another secret of mana tune transcribed!



part 1

gtr.1 
melody
played 2x, 2nd time actually 1 octave higher, so if you got 27 frets or so ;)

e--10---------10--13--12--8---------------------------------------
h------8--10-----------------8--10------------8-------------------
g-----------------------------------7--9--10-----10--9~~----------
d-----------------------------------------------------------------
a-----------------------------------------------------------------
e-----------------------------------------------------------------


e-----10---------10--13--12------15--13--12----------13--12-------
h----------8--10--------------13--------------13--15----------15~~
g-----------------------------------------------------------------
d--10-------------------------------------------------------------
a-----------------------------------------------------------------
e-----------------------------------------------------------------


gtr. 2

+bell: d---------------------0-----0------0-------0---------------

e-----------------------------------------------------------------
h----------------------------3--5--6--8--10--11--13--15-----------
g----------------------------2--4--5--7---9--10--12--14-----------
d--0--2--3--5--7--8--10--12---------------------------------------
a--0--2--3--5--7--8--10--12---------------------------------------
e-----------------------------------------------------------------

during the whole part 1 there's a low d being played.

part 2

gtr.1 
melody
2x

e--------------------------------------------------------
h--------------------------------------------------------
g--7--9--7------5--7---5--7--10--9--7------5--7----------
d--7--9--7--7---5--7---5--7--10--9--7---7--5--7----------
a-----------7---------------------------7----------------
e--------------------------------------------------------


gtr.2
2x

e-------------------------------------------------------------
h-6h8p6h8p6h8p6h8p6h8p6h8p6h8p6h8p6h8p6h8p6h8p6h8p6h8p6h8p6h8p
g-------------------------------------------------------------
d-------------------------------------------------------------
a-------------------------------------------------------------
e-------------------------------------------------------------


e----------------------------5-6p5----------------------------
h-6h8p6h8p6h8p6h8p6h8p6h8-6h8-------8-6h8p6h8p6h8p6h8p6h8p6h8p
g-------------------------------------------------------------
d-------------------------------------------------------------
a-------------------------------------------------------------
e-------------------------------------------------------------

e-------------------------------------------------------------
h-6h8p6h8p6h8p6h8p6h8p6h8p6h8p6h8p6h8p6h8p6h8p6h8p6h8p6h8p6h8-
g-------------------------------------------------------------
d-------------------------------------------------------------
a-------------------------------------------------------------
e-------------------------------------------------------------


e--------------------------------------------------------
h-8p6p5-3h5h6--------------------------------------------
g--------------------------------------------------------
d--------------------------------------------------------
a--------------------------------------------------------
e--------------------------------------------------------


gtr. 3
4x

bell: a--0-----------------------------------------------

e--------------------------------------------------------
h--------------------------------------------------------
g--------------------------------------------------------
d--0-----0-----------------------------------------------
a--0--0--0--3--------------------------------------------
e-----0-----3--------------------------------------------

part 3

gtr. 1
melody

e--------------------------------------------------------
h--------------------------------------------------------
g--12------12---------------12--------------12-----------
d--12--15--12--12---14--15--12--12--10--12--12--15-------
a------15------12---14--15------12--10--12------15-------
e--------------------------------------------------------


e--------------------------------------------------------
h--------------------------------------------------------
g--12--------------12------------------------------------
d--12--12--14--15--12--12---10--12--14-------------------
a------12--14--15------12---10--12--14-------------------
e--------------------------------------------------------


gtr. 2
piano

played 16x
e--------------------------------------------------------
h--15----------------------------------------------------
g----------12--14----------------------------------------
d------12------------------------------------------------
a--------------------------------------------------------
e--------------------------------------------------------

played 4x
e--------------------------------------------------------
h--12----------------------------------------------------
g---------9--11------------------------------------------
d------9-------------------------------------------------
a--------------------------------------------------------
e--------------------------------------------------------


bell at the end of part 3:

e--------------------------------------------------------
h--------------------------------------------------------
g---------------------9---11-----------------------------
d---9---11-------9---------------------------------------
a-----------12-------------------------------------------
e--------------------------------------------------------

VGJam Tabs Secret of Mana - "The Dark Star"
Tabs database last modified Tuesday, 01-Nov-2016 19:14:53 UTC.
Copyright © 1999 - 2016 VideoGameJam.com. All rights reserved.