VGJam Tabs Secret of Mana
Secret of Mana
"I Closed My Eyes" - Guitar tab
Platform(s):Super NES
Composed by:Hiroki Kikuta
Soundtrack:Seiken Densetsu 2 Original Sound Version (track 44)
Tabbed by:sko
Last modified:2003-03-02
Print it:Original file (.TXT)
Hear it:MIDI file
snes - secret of mana - "close your eyelids" by hiroki kikuta
tabbed by sko 
email: djserkan@t-online.de


the beautiful goodnight-track from "secret of mana" done for 2 guitars.

gtr. 1

e--5----------------------------------------------------------------
h-----------8--5~~-------------------------6--5~~---5---------------
g-----5--7------------4~--5-----4--5--5/7--------------7--6---------
d------------------7---------7-------------------------------7------
a---------------------------------------------------------------7---
e-------------------------------------------------------------------


e--5----------------------------------------------------------------
h-----------8--5~~---------------------------------5----------------
g-----5--7------------4~--5-----4--5--5/7--4-----------7--6---------
d------------------7---------7----------------7~~------------7------
a---------------------------------------------------------------7---
e-------------------------------------------------------------------


gtr. 2 played 2 times

e-----------3--5~~-------------------------------------------
h--------6-----------------6--------8---------------10~~-----
g-----5-----------------5--------7-----7---------9-----------
d--3-----------------3-----------5------------7--------------
a------------------------------------------------------------
e------------------------------------------------------------

zzzZzzzzZZZZzzzzzz.......=)

VGJam Tabs Secret of Mana - "I Closed My Eyes"
Tabs database last modified Tuesday, 01-Nov-2016 19:14:53 UTC.
Copyright © 1999 - 2016 VideoGameJam.com. All rights reserved.