VGJam Tabs Secret of Mana
Secret of Mana
"Pure Land" - Guitar tab
Platform(s):Super NES
Composed by:Hiroki Kikuta
Tabbed by:snocore_2000
Last modified:2000-05-06
Print it:Original file (.TXT)
Hear it:MIDI file
Pure Land from secret of mana
tabbed by steve email:snocore_2000@hotmail.com
this is the background part i cant tab the other high part because u would 
need about 26 frets to do so i have 24


E -5-5-|-5-5-|-5-5-|-5-5-|-5-5-|-5-5-|-5-5-|-5-5-|-5-5-|-5-5-|-5-5-|-5
B -5-5-|-5-8-|-5-5-|-5-8-|-5-5-|-7-5-|-5-5-|-5-8-|-5-5-|-7-5-|-5-5-|-5
G -5-7-|-4-9-|-5-7-|-4-9-|-5-7-|-9-7-|-5-7-|-4-9-|-5-7-|-9-7-|-5-7-|-4
D -----|-----|-----|-----|-----|-----|-----|-----|-----|-----|-----|--
A -----|-----|-----|-----|-----|-----|-----|-----|-----|-----|-----|--
E -----|-----|-----|-----|-----|-----|-----|-----|-----|-----|-----|--


E -5-|-6-6-|-6--6-|-6-6-|-6--6-|-5-5-|-5-5-|-5-5-|-5-5-|-5-5-|-5-5-|-5
B -8-|-6-6-|-10-6-|-6-6-|-10-6-|-5-5-|-7-5-|-5-5-|-5-5-|-5-5-|-7-5-|-5
G -9-|-7-5-|-10-8-|-7-5-|-10-8-|-5-7-|-9-7-|-5-7-|-4-7-|-5-7-|-9-7-|-5
D ---|-----|------|-----|------|-----|-----|-----|-----|-----|-----|--
A ---|-----|------|-----|------|-----|-----|-----|-----|-----|-----|--
E ---|-----|------|-----|------|-----|-----|-----|-----|-----|-----|--


E -5-|-5-5-|-5-5-|-5-5-|-5-5-|-5-5-|-6-6-|-6--6-|-6-6-|-6--6-|-5-5-|-5
B -5-|-5-8-|-5-5-|-7-5-|-5-5-|-5-8-|-6-6-|-10-6-|-6-6-|-10-6-|-5-5-|-7
G -7-|-4-9-|-5-7-|-9-7-|-5-7-|-4-9-|-7-5-|-10-8-|-7-5-|-10-8-|-5-7-|-9
D ---|-----|-----|-----|-----|-----|-----|------|-----|------|-----|--
A ---|-----|-----|-----|-----|-----|-----|------|-----|------|-----|--
E ---|-----|-----|-----|-----|-----|-----|------|-----|------|-----|--


E -5-|-5-5-|-5-5-|-4-4-|-4-4-|-4-4-|-4-4-|-3-3-|-3-3-|-3-3-|-3-3-|-4-4
B -5-|-5-5-|-5-5-|-4-4-|-4-4-|-4-4-|-4-4-|-3-3-|-3-6-|-3-3-|-3-3-|-4-4
G -7-|-5-7-|-4-7-|-5-7-|-3-3-|-5-7-|-3-5-|-3-5-|-2-7-|-5-3-|-2-3-|-5-7
D ---|-----|-----|-----|-----|-----|-----|-----|-----|-----|-----|----
A ---|-----|-----|-----|-----|-----|-----|-----|-----|-----|-----|----
E ---|-----|-----|-----|-----|-----|-----|-----|-----|-----|-----|----


E -|-4-4-|-4-4-|-4-4-|-6-6-|-6-6-|-8-10-|-8-7-|-5-5-|-5-5-|-5-5-|-5-5-
B -|-4-4-|-4-4-|-4-4-|-6-6-|-6-6-|-8-8--|-8-8-|-5-5-|-7-5-|-5-5-|-5-8-
G -|-3-3-|-5-7-|-3-5-|-5-7-|-8-7-|-9-9--|-9-7-|-5-7-|-9-7-|-5-7-|-4-9-
D -|-----|-----|-----|-----|-----|------|-----|-----|-----|-----|-----
A -|-----|-----|-----|-----|-----|------|-----|-----|-----|-----|-----
E -|-----|-----|-----|-----|-----|------|-----|-----|-----|-----|-----


E |-5-5-|-5-5-|-5-5-|-5-5-|-6-6-|-6--6-|-6-6-|-6--6-|-5-5-|-5-5-|-5-5-
B |-5-5-|-7-5-|-5-5-|-5-8-|-6-6-|-10-6-|-6-6-|-10-6-|-5-5-|-7-5-|-5-5-
G |-5-7-|-9-7-|-5-7-|-4-9-|-7-5-|-10-8-|-7-5-|-10-8-|-5-7-|-9-7-|-5-7-
D |-----|-----|-----|-----|-----|------|-----|------|-----|-----|-----
A |-----|-----|-----|-----|-----|------|-----|------|-----|-----|-----
E |-----|-----|-----|-----|-----|------|-----|------|-----|-----|-----



E |-5-5-|-5-5-|-5-5-|-5-5-|-5-5-|-5-5-|-5-5-|-5-5-|-5-5-|-6-6-|-6--6-|
B |-5-5-|-5-5-|-7-5-|-5-5-|-5-8-|-5-5-|-7-5-|-5-5-|-5-8-|-6-6-|-10-6-|
G |-4-7-|-5-7-|-9-7-|-5-7-|-4-9-|-5-7-|-9-7-|-5-7-|-4-9-|-7-5-|-10-8-|
D |-----|-----|-----|-----|-----|-----|-----|-----|-----|-----|------|
A |-----|-----|-----|-----|-----|-----|-----|-----|-----|-----|------|
E |-----|-----|-----|-----|-----|-----|-----|-----|-----|-----|------|


E -6-6-|-6--6-|-5-5-|-5-5-|-5-5-|-5-5-|-4-4-|-4-4-|-4-4-|-4-4-|-3-3-|-
B -6-6-|-10-6-|-5-5-|-7-5-|-5-5-|-5-5-|-4-4-|-4-4-|-4-4-|-4-4-|-3-3-|-
G -7-5-|-10-8-|-5-7-|-9-7-|-5-7-|-4-7-|-5-7-|-3-3-|-5-7-|-3-5-|-3-5-|-
D -----|------|-----|-----|-----|-----|-----|-----|-----|-----|-----|-
A -----|------|-----|-----|-----|-----|-----|-----|-----|-----|-----|-
E -----|------|-----|-----|-----|-----|-----|-----|-----|-----|-----|-


E 3-3-|-3-3-|-3-3-|-4-4-|-4-4-|-4-4-|-4-4-|-6-6-|-6-6-|-8-10-|-8-7-|
B 3-6-|-3-3-|-3-3-|-4-4-|-4-4-|-4-4-|-4-4-|-6-6-|-6-6-|-8-8--|-8-8-|
G 2-7-|-5-3-|-2-3-|-5-7-|-3-3-|-5-7-|-3-5-|-5-7-|-8-7-|-9-9--|-9-7-|
D ----|-----|-----|-----|-----|-----|-----|-----|-----|------|-----|
A ----|-----|-----|-----|-----|-----|-----|-----|-----|------|-----|
E ----|-----|-----|-----|-----|-----|-----|-----|-----|------|-----|

VGJam Tabs Secret of Mana - "Pure Land"
Tabs database last modified Tuesday, 01-Nov-2016 19:14:53 UTC.
Copyright © 1999 - 2016 VideoGameJam.com. All rights reserved.