VGJam Tabs SimCity
SimCity
"Village" - Guitar tab
Platform(s):Super NES
Tabbed by:Brian Wroten
Last modified:2000-08-02
Print it:Original file (.TXT)
Hear it:MIDI file
Ok here it is. Tabbing this wasn't nearly as hard as I thought it would be.

For any questions, comments, or corrections e-mail Brian Wroten
zombieluv138@hotmail.com

e---------------------------------|
B---------------------------------|
G-2---2-2---7---2-2---9---7---2-2-|from here the rest of the song should beeasy
D-2---2-2---7---2-2---9---7---2-2-|
A---------------------------------|
E---------------------------------|

solo:

e----------14-17--17--15p14----15p14----14----------------------------------------------------
B-14/15/17------------------17-------17----17-15-13-----13p12----13-13--13p12----13-13--13p12-
G---------------------------------------------------14--------14--------------14--------------
D---------------------------------------------------------------------------------------------
A---------------------------------------------------------------------------------------------
E---------------------------------------------------------------------------------------------


e------------------------------12--11--10--9--8--7--6--5-0h5-5----------------------------
B----12------------------------\\--\\--\\--\\-\\-\\-\\-\\------8--7--5-3-5-7-10----10~~~~~
G-14----14-12----------------------------------------------------------------------9~~~~~~
D-------------14-12-10\9----9-------------------------------------------------------------
A------------------------12---------------------------------------------------------------
E-----------------------------------------------------------------------------------------

VGJam Tabs SimCity - "Village"
Tabs database last modified Tuesday, 01-Nov-2016 19:14:53 UTC.
Copyright © 1999 - 2016 VideoGameJam.com. All rights reserved.