VGJam Tabs Street Fighter 2
Street Fighter 2
"Guile's stage (incomplete)" - Guitar tab
Platform(s):Super NES
Tabbed by:Deezer
Last modified:1999-07-02
Print it:Original file (.TXT)
Hear it:MIDI file
#----------------------------------PLEASE NOTE---------------------------------#
#This file is the author's own work and represents their interpretation of the #
#song. You may only use this file for private study, scholarship, or research. #
#------------------------------------------------------------------------------#


Street Fighter 2 (Super NES)
"Guile's stage"

Originally composed by: ?
------------------------------------------------------------------------------
Tabbed by: Deezer (deezer@usa.net)
For http://www.kontek.net/vgjam/
------------------------------------------------------------------------------

Symbols used:
 x2 = Play this section twice
 b = Bend (full)

Standard Tuning: (low to high) EADGBe


-----
--3--
-----
-----
-----
-----

|-------------------------------------------------------1--1-----------|
|--4--4-3--3-4------3---4--4-3--3-4------3---4-3--4---3-------4---3----|
|-------------------------------------------------------------------3--|
|----------------------------------------------------------------------|
|----------------------------------------------------------------------|
|----------------------------------------------------------------------| x2

---------------------------------------------
---------------------------------------------
----------------------0-------3b---1---0--1--
-----------0---1--3-------3------------------
--3------------------------------------------
---------------------------------------------

-----------------------------------------------
-----------------------------------------------
--------------------------1b----3---0----------
--0----1---3-------0--3---------------------0--
---------------1-------------------------------
-----------------------------------------------

-----------------------------------------------------------------------------
-------------------------------------------------------------------1---3--4--
-------------------------0----------------0--1----3--------------------------
------------0---1--3----------1---1----1-------------------------------------
--3--------------------------------------------------------------------------
-----------------------------------------------------------------------------


Last revised: 7/2/99

VGJam Tabs Street Fighter 2 - "Guile's stage (incomplete)"
Tabs database last modified Tuesday, 01-Nov-2016 19:14:53 UTC.
Copyright © 1999 - 2016 VideoGameJam.com. All rights reserved.