VGJam Tabs Street Fighter 2
Street Fighter 2
"Ken's stage (incomplete)" - Guitar tab
Platform(s):Super NES
Tabbed by:Deezer
Last modified:1999-07-03
Print it:Original file (.TXT)
Hear it:MIDI file
#----------------------------------PLEASE NOTE---------------------------------#
#This file is the author's own work and represents their interpretation of the #
#song. You may only use this file for private study, scholarship, or research. #
#------------------------------------------------------------------------------#

Street Fighter 2 (Super NES)
"Ken's stage"

Originally composed by: ?
------------------------------------------------------------------------------
Tabbed by: Deezer (deezer@usa.net)
For http://www.kontek.net/vgjam/
------------------------------------------------------------------------------

Symbols used:
 x2 = Play this section twice

Standard Tuning: (low to high) EADGBe


|------------------------------------------------------------------------
|------------------------------------------------------------------------
|------------3--1----0---------------------------3--1----0---------------
|-------3---------------3----1----3---------3---------------3----1----3--
|--3-----------------------------------3---------------------------------
|------------------------------------------------------------------------

 ------------------------------------------------------------------------|
 ---------------1----2--1-------------1----------------------------------|
 ------------3-------------3----1--3-------------3----1----0-------------|
 -------3-------------------------------------------------------3--2-----|
 --3---------------------------------------------------------------------|
 ------------------------------------------------------------------------| x2


Last revised: 7/3/99

VGJam Tabs Street Fighter 2 - "Ken's stage (incomplete)"
Tabs database last modified Tuesday, 01-Nov-2016 19:14:53 UTC.
Copyright © 1999 - 2016 VideoGameJam.com. All rights reserved.