VGJam Tabs Final Fantasy X
Final Fantasy X
"Suteki Da Ne" - Guitar tab
Platform(s):PlayStation 2
Composed by:Nobuo Uematsu, Masashi Hamauzu, Junya Nakano
Soundtrack:Final Fantasy X Original Soundtrack [SSCX-10054~7] (track D3-21)
Tabbed by:Aats aka Kula
Last modified:2001-11-14
Print it:Original file (.TXT)
Hear it:MIDI file
#-----------------------------------------------------------------------------#
#-- File created with Instab - http://www.pconline.com/~smcarey/instab.html --#
#-----------------------------------------------------------------------------#

Author/Artist: Nobuo Uematsu/Rikki
Title: Suteki da ne
Album: Final Fantasy 10 OST - PS2
Transcribed by: Aats aka Kula
Email: phasevxd@yahoo.com 

here comes another bast*rd ;)
grrr, there're a mistype , but i've fixed it!
actually in my guitar it's on fret #6, maybe different with yours
imo this song use simple chord, but the problem is how to pick the string.
but you will enjoy it, maybe :D~
and feel free to modify this tab, for yourself :P

---8-8-----3-----5-----3------------------------------------------------------
-5-6---5-3-----5---0-1--------------------------------------------------------
-------------5-------2---0----------------------------------------------------
-7---5---3---2---0-3-----0----------------------------------------------------
------------------------------------------------------------------------------
------------------------------------------------------------------------------
 <1a>

---------------------------------0-0-0-------------0-0------------------------
-------1-0-------------1-0---3---1-1-1-0-------------1---0-0------------------
-----2-------0-------0-----0-----2---------0-------0-----0-0------------------
---2-------2---2---2---------------------2---2---2-----2-----2----------------
-0-------------------------------------0-------3------------------------------
-----------------1-------0----------------------------------------------------
 <2a>

------------------------------------------------------------------------------
-------1-0---1-------1-0---3---0-----------1-1-1-1----------------------------
-----2-------0-----2-----0---------0---2---2-2-2-2----------------------------
---2-------2-----2-----------2---2---2---2---------2--------------------------
-----------------------0---------------0-----------0--------------------------
-1-------3-----0-----1---------0-------------------0--------------------------
 <2b>

-----------------0---------5-------5-0----------------------------------------
---1-1-0h1-1-0h1---1---0h1---1-0h1-----1--------------------------------------
-----2---------------------2-2-0----------------------------------------------
---2-------------------2------------------------------------------------------
-0-------------------0--------------------------------------------------------
------------------------------------------------------------------------------
 <2c>

-----0---------------0-0---------0---3-0-----3--------------------------------
-1-----1-0---3---------1-0---3---------1-0------------------------------------
-----2-----0-0-------0-------0-------0-------0--------------------------------
---2-----------0---2-------2---0---2-------2---2------------------------------
-0---------------3---------------3--------------------------------------------
---------3---------------3---------------3------------------------------------
 <3a> "kaze ga yoseta kotoba ni....

-0---------3-0-------0-------------0---0--------------------------------------
-------1-0---3-0-1-----1-0---3---------1-0-1-3--------------------------------
-----2---------------2-2-----0-------0-------0--------------------------------
---2---------------2-------2---0---2-------2---0------------------------------
-0---------------0---------------3--------------------------------------------
---------0---------------3---------------3------------------------------------
 <3b>

-0-----------3---3---3-2------------------------------------------------------
-----3---3-----3---3-----3-3--------------------------------------------------
-----2-2-----0-----------2-2--------------------------------------------------
---2-------2---0--------------------------------------------------------------
------------------------------------------------------------------------------
-1-------3--------------------------------------------------------------------
 <4a>

------------------------------------------------------------------------------
------------------------------------------------------------------------------
------------------------------------------------------------------------------
------------------------------------------------------------------------------
------------------------------------------------------------------------------
------------------------------------------------------------------------------
 <5a> repeat 3a & 3b

-0-----------3-0---0----0-----------------------------------------------------
-----3---3---------1-1-1------------------------------------------------------
-----2-2-----0---2----2-------------------------------------------------------
---2-------2---2--------------------------------------------------------------
------------------------------------------------------------------------------
-1-------3--------------------------------------------------------------------
 <6a>

-8-7-5-3----------------------------------------------------------------------
---------1-----1-0--------0-1-----1--0---------0-1----------------------------
---5-3-2-----2-----2-0*-2-------2-------2-0*-2--------------------------------
-----------2------------------2-----------------------------------------------
---------0--------------------------------------------------------------------
------------------------------------------------------------------------------
 <6b>    "suteki da ne...    |this part  2  noisy -->^^^

-----0---------------0-0-------0-0--------0-----------------------------------
---------3-0-0-----------0-----0-3-1--1-1-3-0---------------------------------
-------0---------0-----------0-----2--2-2---0---------------------------------
---2-----------2---2-------2--------------------------------------------------
------------------------------------------------------------------------------
-0----------------------------------------------------------------------------
 <7a>

------------------------------------------------------------------------------
-----1-1-0-0---3-1h3p1------1-1-0---------------------------------------------
-----2---------------2----0---------------------------------------------------
---2---------2----------2-----------------------------------------------------
-0---------0------------------------------------------------------------------
------------------------------------------------------------------------------
 <7b>                              ^^^<--this part 2 noisy!

---------------------------------0-----0--------------------------------------
----1-1-1-3-0----1-1-1-3-0---------0h1---1------------------------------------
------2-----0------2-----0-------2--------------------------------------------
----2------------2---------2---2----------------------------------------------
--0------------0-------------0------------------------------------------------
------------------------------------------------------------------------------
 <8a>

----0---------3---0---3-0-----3-----------------0-----0-3-0-0-----------------
--1---1-1-0-------1-----1-0-3---1-------1-0-1-3-------1-0---------------------
------2-------0-------0-------0-------0-------------2-------2-----------------
----2-------2---0---2---2---2-------2-------------2-------2-------------------
--0---------------3---------------3-------------0-----------------------------
----------3---------------3---------------3-------------0---------------------
 <9a> "kaze wa tomari kotoba wa....

-------------3---0---3---------|----------------------------------------------
-1---1-1-0-------------1-0-1-3-|----------------------------------------------
-----2-------0-------0---------|----------------------------------------------
---2-------2---2---2-----------|----------------------------------------------
-0---------------3-------------|----------------------------------------------
---------3---------------3-----|----------------------------------------------
 <9b>                            

-----------------------------------------------------------3-0----------------
-1-----1-0-1-3-0-1-----1-0-1-3-0-1-----1-0-1-3-0-1-----1-0-----0--------------
-----2---------------2---------------2---------------2------------------------
---2---------------2---------------2---------------2--------------------------
-0---------------0---------------0---------------0----------------------------
---------3---------------3---------------3------------------------------------
 <10a>

-----------------0-0-3-------0-0-|--------------------------------------------
-1-----1-0-1-3-0---3---1---1---0-|--------------------------------------------
-----2---------------0---2-------|--------------------------------------------
---2-----------------------------|--------------------------------------------
-0-------------------------------|--------------------------------------------
---------3-----------------------|--------------------------------------------
 <10b>                             

-------1h3p1p0-------------0-------0-----0-0-----0-----------0----------------
-----------------0-------0---3-0-----1-------0-----1-------0---1-3-3-0--------
-----0---------0-------0---------------2-------0---------0--------------------
---2-----------------2---2-----------------------------2---2------------------
------------------------------------------------------------------------------
-1-----------------1-------------1-------------------1------------------------
 <11a>

---------0-0-------0-----0-0-------0------------------------------------------
-------0---3---3---1---1---1---1----------------------------------------------
-----0-------0-------2-------2---2--------------------------------------------
---2--------------------------------------------------------------------------
------------------------------------------------------------------------------
-1----------------------------------------------------------------------------
 <11b>

---8-8-----3-----5-------5-3-----0--------------------------------------------
-5-6---5-3-----5---0-1-------0-1------0---------------------------------------
-------------5-----------------------2----------------------------------------
-7---5---3---2---0-3-2--------------2-----------------------------------------
-----------------------3-0---------0------------------------------------------
------------------------------------------------------------------------------
 <12a>

=lyrics=
-suteki da ne- ff10 ost, by dudul :P

kazega yoseta kotobani oyoida kokoro
kumoga hakobu ashitani hazunda ko'e
tsukiga yureru kagamini furueta kokoro
hoshiga nagare koboreta yawarakai namida

sutekidane futariteotori aruketanara
ikitaiyo kiminomachi i'e udekonaka
sonomune karadaazuke yoinimagire yumemiru

kazewa tomari kotobawa yasashii maboroshi
kumowa yabure ashitawa tokuno ko'e
tsukiga nijimu kagami o nagareta kokoro
hoshiga yurete koboreta kakusenai namida

sutekidane futariteotori aruketanara
ikitaiyo kiminomachi i'e udekonaka
sonoka'o sottourete asanitokeru yumemiru

.that's all, see ya :P
VGJam Tabs Final Fantasy X - "Suteki Da Ne"
Tabs database last modified Tuesday, 01-Nov-2016 19:14:53 UTC.
Copyright © 1999 - 2016 VideoGameJam.com. All rights reserved.