VGJam Tabs Street Fighter 2
Street Fighter 2
"Ryu's stage" - Guitar tab
Platform(s):Super NES
Tabbed by:Anonymous
Last modified:2001-01-30
Print it:Original file (.TXT)
Hear it:MIDI file
Street Fighter II - Ryu's Theme (Unknown artist) 
Copyright (c) Capcom
Sent on Jan 30, 2001

This is not a professional transcription; it is my personal interpretation of 
the song and there may be mistakes in it. If you find any, or if you just 
would like to suggest me of another way of playing it, feel free to mail me
 
NOTE: I deliberatedly changed some parts because it seemed to me that it sounded 
better with them like this. They should be easy to find and change back should 
you want it to sound exactly lke the original.

Timing is very roughly notated, being this "--" a short pause and this "-" 
aproximately 1/3 of a second. Anyway, the rhythm should be pretty easy to 
catch up with if you already know the song.

E|--------------------------------------8-----------------------------------|
B|-0-3-5--5-7-8-10--8-7-8-5-7--8-10-5------10-8-7-5-7-5-5--5-7-8-10-8-10-10-|
G|------------------------------------7-------------------------------------|
D|--------------------------------------------------------------------------|
A|--------------------------------------------------------------------------|
E|--------------------------------------------------------------------------|

E|-------------8-7----8----------5-----------------5-7----------5--8-8-7----|
B|-8-7--7-8-10-----10---8--5-7-8----8-8-7-5--5-7-8-----8--5-7-8-------------|
G|--------------------------------------------------------------------------|
D|--------------------------------------------------------------------------|
A|--------------------------------------------------------------------------|
E|--------------------------------------------------------------------------|

E|-8-7--8-7-5-------------5-7----------5-7--------------5-------------------|
B|------------8-7---5-7-8-----8--5-7-8-----8-7-5--5-7-8---7-0---------------|
G|--------------------------------------------------------------------------|
D|--------------------------------------------------------------------------|
A|--------------------------------------------------------------------------|
E|--------------------------------------------------------------------------|

E|-------5-7----------5-7----------------7--7-5-----------------------------|
B|-5-7-8-----8--5-7-8-----8-7-5--5-7-8-0--------8-7-5--5-3------------------|
G|--------------------------------------------------------------------------|
D|--------------------------------------------------------------------------|
A|--------------------------------------------------------------------------|
E|--------------------------------------------------------------------------|

E|---------------------7-5-7-5--------8--8-7-8-7-5--------------------------|
B|-3-5--5-7-8-5--5-7-8---------8-7-5---------------8-7-5--5-3-5-------------|
G|--------------------------------------------------------------------------|
D|--------------------------------------------------------------------------|
A|--------------------------------------------------------------------------|
E|--------------------------------------------------------------------------|

E|------------5-7-5----------5------5-8-7-6-5-------------------------------|
B|-3-5--5-7-8-------8-7--7-8----7-8-----------8-5--5-7-8-5--5-7-8-5-5-3-3-5-|
G|--------------------------------------------------------------------------|
D|--------------------------------------------------------------------------|
A|--------------------------------------------------------------------------|
E|--------------------------------------------------------------------------|

E|------------5-7-5--7-5-7--------------------------------------------------|
B|-3-5--5-7-8--------------8-7-5--------------------------------------------|
G|--------------------------------------------------------------------------|
D|--------------------------------------------------------------------------|
A|--------------------------------------------------------------------------|
E|--------------------------------------------------------------------------|

VGJam Tabs Street Fighter 2 - "Ryu's stage"
Tabs database last modified Tuesday, 01-Nov-2016 19:14:53 UTC.
Copyright © 1999 - 2016 VideoGameJam.com. All rights reserved.