VGJam Tabs Super Bomberman 3
Super Bomberman 3
"Select Match" - Guitar tab
Platform(s):Super NES
Tabbed by:Cryptopsy911
Last modified:2002-07-13
Print it:Original file (.TXT)
Tabbed By:Cryptopsy911


Super Bomber Man 3 - Battle Game (select match screen)

Tune to E

----------------------------------------------------|
----------------------------------------------------|
--10----------10--9~~-------------------------------|
---------10------------10--8--10--------------------|
-----10---------------------------8~~---------------|
----------------------------------------------------|

----------------------------------------------------|
----------------------------------------------------|
----------------------------------------------------|
------------------------3--2~~----------------------|
-8--10--6--7---3-----1------------------------------|
------------------3---------------------------------|

Repeat 2X


Then...

----------------------------------------------------|
----------------------------------------------------|
--10----------10--9~~-------------------------------|
---------10------------10--8--10--------------------|
-----10---------------------------8~~---------------|
----------------------------------------------------|

----------------------------------------------------|
----------------------------------------------------|
-10--12--8--9-------------10--9~~-------------------|
---------------10------8----------------------------|
-------------------10-------------------------------|
----------------------------------------------------|


------------------------------------------------------------------|
------------------------------------------------------------------|
-10----------10--9~~----------------------------------------------|
--------10------------9--10---------------------------------------|
----10-----------------------9-10-7----8-8-8--7-7-7---------------|
------------------------------------8-----------------8~~---6h8~~-|

VGJam Tabs Super Bomberman 3 - "Select Match"
Tabs database last modified Tuesday, 01-Nov-2016 19:14:53 UTC.
Copyright © 1999 - 2016 VideoGameJam.com. All rights reserved.