VGJam Tabs Super Castlevania IV
Super Castlevania IV
"Bloody Tears" - Bass tab
Platform(s):Super NES
Tabbed by:Smeg
Last modified:2003-02-18
Print it:Original file (.TXT)
Hear it:MIDI file
Super Castlevania IV (SNES) - Bloody Tears

Original composed by S. Terashima and Kenichi Matsubara; SNES arrangement by Masanori Adachi and Sotaro Tojima

Tabbed by Smeg (smeg@fefea.org)


    let ring.............
  g|---|-|-0-|-|-3-|-|-|-5-|
  d|---|-|---|-|---|-|-|---|
  a|-3-|-|---|-|---|-|-|-3-|
  e|---|-|---|-|---|-|-|---|


  g|-----5---------5-|-------3-----|-------------|-----------------|
  d|---5---------5---|---3-----3---|-----6-----6-|-5-------3-5-5---|
  a|-3-----3h5-3-----|-1---3-----1-|---6---6-----|---5-4h5-------2-|
  e|-----------------|-------------|-4-------4---|-----------------|


  g|-----5-----------|-------3---2-|-----------------|-----------------|
  d|---5---------5---|---3-----3---|-------6-------6-|-3-3-----3-5-5-5-|
  a|-3-----3h5-3---3-|-1---3-------|---3-6---3-6p3---|-----4h5---------|
  e|-----------------|-------------|-4---------------|-----------------|


  g|-------5---|-----3-|-------|-----3-|
  d|---5-------|---3---|-----6-|---3---|
  a|-3-------5-|-1-----|---6---|-1-----|
  e|-----3-----|-------|-4-----|-------|


  g|-------5---|-----3-|-------|-------|
  d|---5-------|---3---|-----6-|---3---|
  a|-3-------5-|-1-----|---6---|-1---1-|
  e|-----3-----|-------|-4-----|-------|


  g|-----5---------5-|-------3-----|-------------|-----------------|
  d|---5---------5---|---3-----3---|-----6-----6-|-5-------3-5-5---|
  a|-3-----3h5-3-----|-1---3-----1-|---6---6-----|---5-4h5-------2-|
  e|-----------------|-------------|-4-------4---|-----------------|


  g|-----5-----------|-------3---2-|-----------------|-----------------|
  d|---5---------5---|---3-----3---|-------6-------6-|-3-3-----3-5-5-5-|
  a|-3-----3h5-3---3-|-1---3-------|---3-6---3-6p3---|-----4h5---------|
  e|-----------------|-------------|-4---------------|-----------------|


  g|---|---|---|---|---|---|---|---|
  d|---|---|---|---|---|---|---|---|
  a|-3-|---|---|---|-3-|---|---|---|
  e|---|-6-|-4-|-6-|---|-6-|-4-|-6-|

 Repeat from second staff.

VGJam Tabs Super Castlevania IV - "Bloody Tears"
Tabs database last modified Tuesday, 01-Nov-2016 19:14:53 UTC.
Copyright © 1999 - 2016 VideoGameJam.com. All rights reserved.