VGJam Tabs Super Mario Kart
Super Mario Kart
"Title screen" - Guitar tab
Platform(s):Super NES
Tabbed by:Deezer
Last modified:1998-01-09
Date added:1999-04-04
Print it:Original file (.TXT)
Hear it:MIDI file
#----------------------------------PLEASE NOTE---------------------------------#
#This file is the author's own work and represents their interpretation of the #
#song. You may only use this file for private study, scholarship, or research. #
#------------------------------------------------------------------------------#

Super Mario Kart (SNES)
"Title screen"

Originally composed by: Soyo Oka
------------------------------------------------------------------------------
Tabbed by Deezer - deezer@usa.net
http://www.kontek.net/vgjam/
------------------------------------------------------------------------------

Symbols used:
 x2 = Play this section 2 times.

Standard tuning - EADGBe


|------------3--------1-0---0-1--|
|--1-1-3-1-0--------3-----3------|
|--------------------------------|
|--------------------------------|
|--------------------------------|
|--------------------------------| x2

------0-3-2-----------------3-1-----------0-3-2----------------------
--3-3-------1------2-3-2-3-----------3-3--------1------1-1--0--3--1--
---------------------------------------------------------------------
---------------------------------------------------------------------
---------------------------------------------------------------------
---------------------------------------------------------------------

Repeat from beginning.


Last revised: 1/9/98

VGJam Tabs Super Mario Kart - "Title screen"
Tabs database last modified Tuesday, 01-Nov-2016 19:14:53 UTC.
Copyright © 1999 - 2016 VideoGameJam.com. All rights reserved.