VGJam Tabs Super Mario RPG: Legend of the Seven Stars
Super Mario RPG: Legend of the Seven Stars
"Booster's Tower" - Guitar tab
Platform(s):Super NES
Composed by:Koji Kondo, Yoko Shimomura, Nobuo Uematsu
Tabbed by:iron_wind
Last modified:2002-02-27
Print it:Original file (.TXT)
Hear it:MIDI file
Super Mario RPG
Booster's Tower

E-15h13---15-----20-----23----15------20------23-----13-----16----22---
A----------------------------------------------------------------------
D----------------------------------------------------------------------
G----------------------------------------------------------------------
B----------------------------------------------------------------------
E----------------------------------------------------------------------


E-13h12h13------6-----8---10h11----13----15-----16--15---13----15------
A----------------------------------------------------------------------
D----------------------------------------------------------------------
G----------------------------------------------------------------------
B----------------------------------------------------------------------
E----------------------------------------------------------------------


E-15h13---15----20----23----15------20-----23----13----16----22\-------
A----------------------------------------------------------------------
D----------------------------------------------------------------------
G----------------------------------------------------------------------
B----------------------------------------------------------------------
E----------------------------------------------------------------------


E-13h12h13-----8----6----5h6-----3-----5----7h8----13h11---10---8------
A----------------------------------------------------------------------
D----------------------------------------------------------------------
G----------------------------------------------------------------------
B----------------------------------------------------------------------
E----------------------------------------------------------------------


E-13h12h13-----8----6----5h6-----3-----5----7h8----13h11---10---8------
A----------------------------------------------------------------------
D----------------------------------------------------------------------
G----------------------------------------------------------------------
B----------------------------------------------------------------------
E----------------------------------------------------------------------


E-10h8----13----11---10----8----15h13h15-----13----13---11---10---8----
A----------------------------------------------------------------------
D----------------------------------------------------------------------
G----------------------------------------------------------------------
B----------------------------------------------------------------------
E----------------------------------------------------------------------

Repeat from beginning>

VGJam Tabs Super Mario RPG: Legend of the Seven Stars - "Booster's Tower"
Tabs database last modified Tuesday, 01-Nov-2016 19:14:53 UTC.
Copyright © 1999 - 2016 VideoGameJam.com. All rights reserved.