VGJam Tabs Super Mario RPG: Legend of the Seven Stars
Super Mario RPG: Legend of the Seven Stars
"Mushroom Kingdom" - Guitar tab
Platform(s):Super NES
Composed by:Koji Kondo, Yoko Shimomura, Nobuo Uematsu
Tabbed by:iron_wind
Last modified:2002-03-16
Print it:Original file (.TXT)
#----------------------------------PLEASE NOTE--------------------------------#
#This file is the author's own work and represents their interpretation of the#
#song. You may only use this file for private study, scholarship, or research.#
#-----------------------------------------------------------------------------#
#-- File created with Instab - http://www.pconline.com/~smcarey/instab.html --#
#-----------------------------------------------------------------------------#

Super Mario RPG: The Legend of the Seven Stars
-The Mushroom Kingdom Theme-
(Chancellor's Groove)

--------------------------------------|------1----1---------------------------
--------------------------------------|-1--------------1--3-1---------1-------
--------------------------------------|--------------------------3---------2--
--------------------------------------|---------------------------------------
------3---------3---------3---------3-|------3---------3---------3---------3--
-1---------1---------1---------1------|-1---------1---------1---------1-------


--------------------------------------|------1----1---------------------------
-------------------------------1------|-1--------------1--3-1---------1-------
-3----2--0-2--------------0-----------|--------------------------3---------2--
----------------3----2----------------|---------------------------------------
------3---------3----3---------3------|------3---------3---------3---------3--
-1---------1--------------3---------3-|-1---------1---------1---------1-------


--------------------------------------|---------------------------------------
--------------------------------------|---------------------------------------
-3---2--0-2---------------0-----------|---------------------------------------
----------------3----2---------3------|---------------------------------------
-----3----------3----3---------3---3--|---------------------------------------
-1--------1---------------3-----------|-0----1--3----0-----0----1--3----0-----


--------------------------------------|---------------------------------------
--------------------------------------|---------------------------------------
--------------------------------------|---------------------------------------
--------------------------------------|---------------------------------------
------------------3--1--0------0------|---------------------------------------
-0----1--3----0-------------3----3--1-|-0---1--3-----0-----0----1--3----0-----


--------------------------------------|------1----1---------------------------
--------------------------------------|-1--------------1----3----1----1-------
--------------------------------------|-----------------------------3------2--
--------------------------------------|---------------------------------------
------------------3----1-0------------|------3---------3---------3---------3--
-0----1--3----0-------------3----0----|-1---------1---------1---------1-------


--------------------------------------|------1----1---------------------------
------------------------------1-------|-1--------------1----3----1----1-------
-3----2-0--2-------------0------------|-----------------------------3------2--
----------------3----2----------------|---------------------------------------
------3---------3----3--------3-------|------3---------3---------3---------3--
-1---------1-------------3--------3---|-1---------1---------1---------1-------


--------------------------------------|---------------------------------------
--------------------------------------|-------1----1--------------------------
-3----2-0--2-------------0------------|-0---------------0--2--0-----0---------
----------------3----2--------3--2--3-|--------------------------3-----2------
------3---------3----3--------3-------|-3-------------------------------------
-1---------1-------------3------------|---------------------------------------


--------------------------------------|-3---8---8---3---5---3---1---3---0-----
-1---------------------------1---3----|---------------------------------------
-----3---2---3---0---2---3------------|---------------------------------------
-0------------------------------------|-2-------------------------------------
--------------------------------------|---------------------------------------
--------------------------------------|---------------------------------------


-8---6---5---6---3---0----------------|---------------------------------------
--------------------------------------|-1-------------------------------------
--------------------------------------|-----3---2---3---0------------------0--
-3-------------------3---2---0---2----|------------------------------0-2-3----
------------------------------------3-|------------------------0-1-3----------
--------------------------------------|----------------------3----------------


-15--13\12/13--10--12--8----3----6----|-10-12/13\12---10--8----5---3----------
--------------------------------------|---------------------------------------
--------------------------------------|---------------------------------------
--------------------------------------|---------------------------------------
--3---------3-------3-------3---------|-------------------3--------3----------
--------------------------------------|-3--------3----------------------------


-15-13/12\13---10--12---8----3---6----|-10-12-13-12---10--8-------------------
--------------------------------------|---------------------------------------
--------------------------------------|---------------------------------------
--------------------------------------|---------------------------------------
-3--------3--------3--------3---------|-------------------3--------3----------
--------------------------------------|-3--------3----------------------------


-20-18\17/18---15--17---13--8---13----|-15---18--17---15--13------------------
--------------------------------------|---------------------------------------
--------------------------------------|---------------------------------------
--------------------------------------|---------------------------------------
-3--------3--------3--------3---------|-------------------3---------3---------
--------------------------------------|-3--------3----------------------------



	* Repeat from the beginning after the bass intro.


VGJam Tabs Super Mario RPG: Legend of the Seven Stars - "Mushroom Kingdom"
Tabs database last modified Tuesday, 01-Nov-2016 19:14:53 UTC.
Copyright © 1999 - 2016 VideoGameJam.com. All rights reserved.