VGJam Tabs Super Mario RPG: Legend of the Seven Stars
Super Mario RPG: Legend of the Seven Stars
"Three songs for Toadofsky" - Guitar tab
Platform(s):Super NES
Composed by:Koji Kondo, Yoko Shimomura, Nobuo Uematsu
Tabbed by:AKndOfMgic
Last modified:1999-05-16
Print it:Original file (.TXT)
I have the three songs that you learn throughout the game. I don't know if
you're familiar with the game, but you have to learn the songs and play them
on a musical staff at a pond.

This is the staff in C tuning (2 steps down):

NOTE      STRING       FRET
Mi----------e-------------4
Re----------e-------------3
Do----------e-------------2
Ti----------e-------------0
Fa----------B-------------2
So----------B-------------0
La----------G-------------0

For some reason there is no pattern to the note locations, I am pretty sure I
am correct.

And the songs:

  Frogfucious:
  e-------------4----3----2----3----2----3-------
  b---0------------------------------------------
  g--------0-------------------------------------
  d----------------------------------------------

  Moleville Blues: 
  e---4---2----------2-----3--------0----2------
  b--------------0------------------------------
  g--------------------------------0------------
  d---------------------------------------------

  Star fish melody:
  e---0--2--3--4--------0--2--4----
  b-------------------0------------
  g--------------------------------
  d--------------------------------

Really easy, huh?
Remember, that is tabbed into C tuning.

VGJam Tabs Super Mario RPG: Legend of the Seven Stars - "Three songs for Toadofsky"
Tabs database last modified Tuesday, 01-Nov-2016 19:14:53 UTC.
Copyright © 1999 - 2016 VideoGameJam.com. All rights reserved.