VGJam Tabs Super Mario World
Super Mario World
"Forest of Illusion" - Guitar tab
Platform(s):Super NES
Composed by:Koji Kondo
Tabbed by:Cecil
Last modified:2008-11-05
Date added:2009-09-05
Print it:Original file (.TXT)
                                      Super Mario World
                                     "Forest of Illusion"
                        Tabbed by: Cecil           Email: NJCecil@gmail.com

You'll have to listen to the song to get the rhythm of the lead, but the strings part is labeled (poorly, at that). Hopefully, you can make sense of it all.



Lead:

--------------------------20-----20--19---------------------
------------------------------------------------------------      Play
-17h19p17--17h19p17--17------------------19--19--19--19-----      Twice
------------------------------------------------------------
------------------------------------------------------------
------------------------------------------------------------


-13-11-11-13-11-11-13-----12-10-10-12-10-10-12---13-11-11-13-11-11-13/20--19---
-------------------------------------------------------------------------------
-------------------------------------------------------------------------------
-------------------------------------------------------------------------------
-------------------------------------------------------------------------------
-------------------------------------------------------------------------------


String Part:
 1   2   3 +       1   2   3 +           
-----------4-----|---------6s7-----|
---------4-4-----|---------7s8-----|
---------5-------|-----------------|     Play
-----1-----------|-----0-----------|     Twice 
-----------------|-----------------|
-4---------------|-3---------------|

 1 + 2 + 3 + 4 +   1 + 2 + 3 + 4 +   1 + 2 + 3 + 4 +   1 
-6-----6-----6---|-5-----5-----5---|-6-----6-----6---|-5---------------|
-7-----7-----7---|-6-----6-----6---|-7-----7-----7---|-6---------------|
-----------------|-----------------|-----------------|-----------------|
-----------------|-----------------|-----------------|-----------------|
-----------------|-----------------|-----------------|-----------------|
-----------------|-----------------|-----------------|-----------------|
VGJam Tabs Super Mario World - "Forest of Illusion"
Tabs database last modified Tuesday, 01-Nov-2016 19:14:53 UTC.
Copyright © 1999 - 2016 VideoGameJam.com. All rights reserved.