VGJam Tabs Super Mario World
Super Mario World
"Map screen" - Guitar tab
Platform(s):Super NES
Composed by:Koji Kondo
Tabbed by:Cecil
Last modified:2008-11-05
Date added:2009-09-05
Print it:Original file (.TXT)
                                      Super Mario World
                                       "Overworld/Map"
                                     For Guitar and Bass
                        Tabbed by: Cecil           Email: NJCecil@gmail.com

The bass holds a steady half note beat throughout the song while the guitar play the main riff. Spacing was a pain, but I think you can get it. 


Guitar:     
E||----------7--------7--------------------------------8---------8--------7---------|
B||----------8--------8----------10-------------------10--------10--------8---------|
G||----------9--------9-----------9-------------------10--------10--------7---------|
D||----10--------10--------------10--------------12---------12----------------------|
A||---------------------------------------------------------------------------------|
E||---------------------------------------------------------------------------------|


|--------7--------7------------------8---------------------------------|
|--------8--------8---------10-------10------10------------------------|
|--------9--------9----------9-------10-----------10-----9-----7-------|
|--10--------10-------------10---------------------------9-------------|
|--------------------------------------------------------8-------------|
|----------------------------------------------------------------------|


|----------7--------7--------------------------------8---------8--------7---------|
|----------8--------8----------10-------------------10--------10--------8---------|
|----------9--------9-----------9-------------------10--------10--------7---------|
|----10--------10--------------10--------------12---------12----------------------|
|---------------------------------------------------------------------------------|
|---------------------------------------------------------------------------------|

|--------7--------7----------------------------------15h17p15---------|
|--------8--------8---------10-----------5--6--8----------------------|
|--------9--------9----------9-------7--------------------------------|
|--10--------10-------------10----------------------------------------|
|---------------------------------------------------------------------|
|---------------------------------------------------------------------|



Bass:    
G||-----------5---------------------------7-------------0-------|
D||-------------------------7-----------------------------------|
A||----3---------------------------5----------------------------|
E||------------------5---------------------------3--------------|

   
|----------5--------------------------------------------------|
|------------------------7------0-----------------------------|
|---3---------------------------------------------------------|
|-----------------5--------------------------3----------------|

|-----------5---------------------------7-------------0-------|
|-------------------------7-----------------------------------|
|----3---------------------------5----------------------------|
|------------------5---------------------------3--------------|


|----------5--------------------------------------------------|
|------------------------7------0-----------------------------|
|---3---------------------------------------------------------|
|-----------------5-------------------------------------------|


VGJam Tabs Super Mario World - "Map screen"
Tabs database last modified Tuesday, 01-Nov-2016 19:14:53 UTC.
Copyright © 1999 - 2016 VideoGameJam.com. All rights reserved.