VGJam Tabs Final Fantasy X
Final Fantasy X
"Suteki Da Ne" - Guitar tab
Platform(s):PlayStation 2
Composed by:Nobuo Uematsu, Masashi Hamauzu, Junya Nakano
Soundtrack:Final Fantasy X Original Soundtrack [SSCX-10054~7] (track D3-21)
Tabbed by:Tang
Last modified:2002-07-01
Print it:Original file (.TXT)
Hear it:MIDI file
Suteki Da Ne 
Game: Final Fantasy X
Composed by: Nobuo Uematsu
Performed by: Rikki
Transcribed by: Tang (fot@tm.net.my)
Album: Final Fantasy X OST (Disc 3 - Track 21)
Time signature: 4/4

This song has 2 guitar parts, so find a partner and play it. It took me
few days to tab it from a midi. I made this tab using Guitar pro 3. If
you have the program and you want the gp3 version, contact me (fot@tm.net.my)
and I'll send it to you. It's much easier to read and print the tab in
guitar pro. You can hear the instrumental version of Suteki Da Ne from 

FFX single. Enjoy this song!


Guitar 1
  
E||--------------13----------|--------12----------------|
B||--10----11----------------|--10----------------13----|
G||--------------------12----|--------------10----------|
D||--------------------------|--------------------------|
A||--------------------------|--------------------------|
E||--------------------------|--------------------------|


--10---------------------|--------------------|---------------------|
-------------------13----|--------------------|----------------6----|
--------9----10----------|--------------------|-----------7---------|
-------------------------|----------10--------|------7--------------|
-------------------------|--------------------|---------------------|
-------------------------|--------------------|---------------------|


--0-------------------|-----------------1----|------------5---------|
--8---------1---------|--3---------3---------|--5-------------------|
-------0---------0----|-------3--------------|-----------------5----|
----------------------|----------------------|-------7--------------|
----------------------|----------------------|----------------------|
----------------------|----------------------|----------------------|


----------------5----|---------------------|---------------------|
-----------6---------|--5------------------|----------------6----|
------7--------------|-----------5---------|-----------5---------|
---------------------|----------------5----|------7--------------|
---------------------|---------------------|---------------------|
---------------------|---------------------|---------------------|


----------------------|---------------------|----------------------|
-------5--------------|----------------6----|--5-------------------|
--7---------6---------|-----------7---------|------------5---------|
-----------------7----|------8--------------|-------5---------5----|
----------------------|---------------------|----------------------|
----------------------|---------------------|----------------------|


----------------------|----------------------|----------------------|
----------------------|--6-------------------|------------6---------|
--5---------5---------|------------7---------|-------7---------7----|
-------7---------7----|-------7---------7----|--8-------------------|
----------------------|----------------------|----------------------|
----------------------|----------------------|----------------------|


--6-------------------|-------------------|------------------|
------------6---------|--5----------------|------------------|
-------7---------7----|--5----------------|------------------|
----------------------|-------------------|------------------|
----------------------|-------------------|------------------|
----------------------|-------------------|------------------|


------------10--------|--------10--------------|--10------------------|
------10--------------|--10--------------10----|------------10--------|
----------------------|------------------------|----------------------|
----------------------|------------------------|----------------------|
----------------------|------------------------|----------------------|
----------------------|------------------------|----------------------|


--------10--------------|------------------------|--------------------|
--10----------10--------|------------10----------|-----------8--------|
------------------------|--10--------------10----|--9-----------------|
------------------------|------------------------|--------------------|
------------------------|------------------------|--------------------|
------------------------|------------------------|--------------------|


--------------------|----------------------|--------------------|
--------------------|-------------8--------|--------------10----|
--------------10----|--9----10-------------|--------------------|
--------------------|----------------------|--------------------|
--------------------|----------------------|--------------------|
--------------------|----------------------|--------------------|


-----------8--------|----------------------|-------8---------------|
--8-----------------|--10------------------|------------10---------|
--------------------|----------------10----|--9---------------9----|
--------------------|----------------------|-----------------------|
--------------------|----------------------|-----------------------|
--------------------|----------------------|-----------------------|


------------------------|--------------------|--------------------|
------------10----------|-----------8--------|--------------------|
--10--------------10----|--9-----------------|--------------10----|
------------------------|--------------------|--------------------|
------------------------|--------------------|--------------------|
------------------------|--------------------|--------------------|


-----------------------|-----------------------|-----------8--------|
-----------------------|------------10---------|--8-----------------|
--9----10----12--------|--10--------------7----|--------------------|
-----------------------|-----------------------|--------------------|
-----------------------|-----------------------|--------------------|
-----------------------|-----------------------|--------------------|


------8---------8----|--7-----------------|--------------------|
-----------8---------|-----------8--------|--------------------|
---------------------|--------------------|--------------10----|
---------------------|--------------------|--------------------|
---------------------|--------------------|--------------------|
---------------------|--------------------|--------------------|


---------------------|--------------------|-----------------------|
---------------------|--------------------|-----------------------|
--9--------12--------|--------------10----|--9----10----12--------|
---------------------|--------------------|-----------------------|
---------------------|--------------------|-----------------------|
---------------------|--------------------|-----------------------|


--------------------|-----------8--------|----------------------|
--------------10----|--8-----------------|--10------------------|
--------------------|--------------------|----------------10----|
--------------------|--------------------|----------------------|
--------------------|--------------------|----------------------|
--------------------|--------------------|----------------------|


-------8---------------|------------------------|--------------------|
------------10---------|------------10----------|-----------8--------|
--9---------------9----|--10--------------10----|--9-----------------|
-----------------------|------------------------|--------------------|
-----------------------|------------------------|--------------------|
-----------------------|------------------------|--------------------|


--------------------|-----------------------|-----------------------|
--------------------|-----------------------|------------10---------|
--------------10----|--9----10----12--------|--10--------------7----|
--------------------|-----------------------|-----------------------|
--------------------|-----------------------|-----------------------|
--------------------|-----------------------|-----------------------|


-----------8--------|----------------------|---------------------|
--8-----------------|--10------------------|---------------------|
--------------------|--10--------10--------|--9--------12--------|
--------------------|----------------------|---------------------|
--------------------|----------------------|---------------------|
--------------------|----------------------|---------------------|


--13------12------10----|------8------------|------------------------|
------------------------|-------------------|----------6----------6--|
--14------12------10----|------9------------|-------5----------5-----|
------------------------|-------------------|--7----------7----------|
------------------------|-------------------|------------------------|
------------------------|-------------------|------------------------|


------------------------|------------------------|------------------------|
----------5----------5--|----------6----------6--|----------6----------6--|
-------5----------5-----|-------7----------7-----|-------7----------7-----|
--5----------5----------|--7----------7----------|--8----------8----------|
------------------------|------------------------|------------------------|
------------------------|------------------------|------------------------|


------------------------|------------------------|-----------5------------|
----------6----------6--|----------5----------5--|--------6-----6----8----|
-------5----------5-----|-------5----------5-----|-----7------------------|
--7----------7----------|--5----------5----------|--8---------------------|
------------------------|------------------------|------------------------|
------------------------|------------------------|------------------------|


--5-------------------|------------------------|------------------------|
-------6--------------|----------6----------6--|----------5----------5--|
----------7-----------|-------5----------5-----|-------5----------5-----|
-------------8--------|--7----------7----------|--5----------5----------|
----------------------|------------------------|------------------------|
----------------------|------------------------|------------------------|


------------------------|------------------------|------------------------|
----------6----------6--|----------6----------6--|----------6----------6--|
-------7----------7-----|-------7----------7-----|-------5----------5-----|
--7----------7----------|--8----------8----------|--7----------7----------|
------------------------|------------------------|------------------------|
------------------------|------------------------|------------------------|


------------------------|-----------5-----------5--|-----------5--------------|
----------5----------5--|--------6-----------6-----|--------6-----------6-----|
-------5----------5-----|-----7-----------7--------|-----7-----------7-----7--|
--5----------5----------|--8-----------8-----------|--8-----------8-----------|
------------------------|--------------------------|--------------------------|
------------------------|--------------------------|--------------------------|


--5----------------|------------------|----------5---------|--5----------------|
-------------------|------------------|---------------5----|-------------------|
-------------------|------------------|--------------------|-------------------|
-------------------|------------------|--------------------|-------------------|
-------------------|------------------|--------------------|-------------------|
-------------------|------------------|--------------------|-------------------|


-------------------|--5----------------|----------------5----|
--------------5----|-------------------|---------------------|
-------------------|-------------------|-----------7---------|
-------------------|-------------------|------8--------------|
-------------------|-------------------|---------------------|
-------------------|-------------------|---------------------|


-------------------|----------------5----|-------------------|
--6----------------|---------------------|--6----------------|
-------------------|-----------7---------|-------------------|
-------------------|------8--------------|-------------------|
-------------------|---------------------|-------------------|
-------------------|---------------------|-------------------|


------------------|--5----------------|------------------|------------------|
------------------|-------------------|------------------|------------------|
------------------|-------------------|------------------|------------------|
------------------|-------------------|------------------|------------------|
------------------|-------------------|------------------|------------------|
------------------|-------------------|------------------|------------------|


------------------|------------------|------------------|------------------|
------------------|------------------|------------------|------------------|
------------------|------------------|------------------|------------------|
------------------|------------------|------------------|------------------|
------------------|------------------|------------------|------------------|
------------------|------------------|------------------|------------------|


------------------|------------------|------------------|------------------|
------------------|------------------|------------------|------------------|
------------------|------------------|------------------|------------------|
------------------|------------------|------------------|------------------|
------------------|------------------|------------------|------------------|
------------------|------------------|------------------|------------------|


------------------|------------------|------------------|------------------|
------------------|------------------|------------------|------------------|
------------------|------------------|------------------|------------------|
------------------|------------------|------------------|------------------|
------------------|------------------|------------------|------------------|
------------------|------------------|------------------|------------------|


------------------|------------------|------------------|------------------|
------------------|------------------|------------------|------------------|
------------------|------------------|------------------|------------------|
------------------|------------------|------------------|------------------|
------------------|------------------|------------------|------------------|
------------------|------------------|------------------|------------------|


------------------|------------------|------------------|------------------|
------------------|------------------|------------------|------------------|
------------------|------------------|------------------|------------------|
------------------|------------------|------------------|------------------|
------------------|------------------|------------------|------------------|
------------------|------------------|------------------|------------------|


----------------------|--7-----------------|-----------------------|
----------10----------|--8--------8--------|----------10--8--------|
----------------10----|--------------------|-----------------10----|
----------------------|--------------------|-----------------------|
----------------------|--------------------|-----------------------|
----------------------|--------------------|-----------------------|


----------------------|--------------------------|-----------8--------|
--10------------------|--------10----------10----|--8--------8--------|
------------10--------|--10----------10----------|--9-----------------|
----------------------|--------------------------|--------------------|
----------------------|--------------------------|--------------------|
----------------------|--------------------------|--------------------|


--------------------|-----------8--------|--------------5----|
--------------------|--------------------|-------------------|
--------------10----|--9-----------------|-------------------|
--------------------|--------------------|-------------------|
--------------------|--------------------|-------------------|
--------------------|--------------------|-------------------|


------------0--------|--5-----------------|--8----5----8---------|
--5----6----8--------|---------------6----|-----------------5----|
--5----7-------------|--------------------|----------------------|
---------------------|--------------------|----------------------|
---------------------|--------------------|----------------------|
---------------------|--------------------|----------------------|


-----------5---------|--------------------|-------------------|
--6-------------6----|--5--------8--------|--------------6----|
---------------------|--------------------|-------------------|
---------------------|--------------------|-------------------|
---------------------|--------------------|-------------------|
---------------------|--------------------|-------------------|


---------------------|-----------------------|-----------8--------|
--5----6----8--------|------------10---------|--8-----------------|
--5----7----9--------|--10--------------7----|--------------------|
---------------------|-----------------------|--------------------|
---------------------|-----------------------|--------------------|
---------------------|-----------------------|--------------------|


------8---------8----|--7-----------------|--------------------|
-----------8---------|-----------8--------|--------------------|
---------------------|--------------------|--------------10----|
---------------------|--------------------|--------------------|
---------------------|--------------------|--------------------|
---------------------|--------------------|--------------------|


--------------------|--------------------|----------------------|
-----------8--------|--------------------|-------------8--------|
--9-----------------|--------------10----|--9----10-------------|
--------------------|--------------------|----------------------|
--------------------|--------------------|----------------------|
--------------------|--------------------|----------------------|


--------------------|-----------8--------|----------------------|
--------------10----|--8-----------------|--10------------------|
--------------------|--------------------|----------------10----|
--------------------|--------------------|----------------------|
--------------------|--------------------|----------------------|
--------------------|--------------------|----------------------|


-------8---------------|------------------------|--------------------|
------------10---------|------------10----------|-----------8--------|
--9---------------9----|--10--------------10----|--9-----------------|
-----------------------|------------------------|--------------------|
-----------------------|------------------------|--------------------|
-----------------------|------------------------|--------------------|


--------------------|----------------------|-----------------------|
--------------------|-------------8--------|------------10---------|
--------------10----|--9----10-------------|--10--------------7----|
--------------------|----------------------|-----------------------|
--------------------|----------------------|-----------------------|
--------------------|----------------------|-----------------------|


-----------8--------|----------------------|---------------------|
--8-----------------|--10------------------|---------------------|
--------------------|--10--------10--------|--9--------12--------|
--------------------|----------------------|---------------------|
--------------------|----------------------|---------------------|
--------------------|----------------------|---------------------|


--13------12------10----|--8----------------|------------------------|
------------------------|-------------------|----------6----------6--|
--14------12------10----|--9----------------|-------5----------5-----|
------------------------|-------------------|--7----------7----------|
------------------------|-------------------|------------------------|
------------------------|-------------------|------------------------|


------------------------|------------------------|------------------------|
----------5----------5--|----------6----------6--|----------6----------6--|
-------5----------5-----|-------7----------7-----|-------7----------7-----|
--5----------5----------|--7----------7----------|--8----------8----------|
------------------------|------------------------|------------------------|
------------------------|------------------------|------------------------|


------------------------|------------------------|-----------5------------|
----------6----------6--|----------5----------5--|--------6-----6----8----|
-------5----------5-----|-------5----------5-----|-----7------------------|
--7----------7----------|--5----------5----------|--8---------------------|
------------------------|------------------------|------------------------|
------------------------|------------------------|------------------------|



--5-------------------|------------------------|------------------------|
-------6--------------|----------6----------6--|----------5----------5--|
----------7-----------|-------5----------5-----|-------5----------5-----|
-------------8--------|--7----------7----------|--5----------5----------|
----------------------|------------------------|------------------------|
----------------------|------------------------|------------------------|



------------------------|------------------------|------------------------|
----------6----------6--|----------6----------6--|----------6----------6--|
-------7----------7-----|-------7----------7-----|-------5----------5-----|
--7----------7----------|--8----------8----------|--7----------7----------|
------------------------|------------------------|------------------------|
------------------------|------------------------|------------------------|


------------------------|-----------5-----------5--|-----------5--------------|
----------5----------5--|--------6-----------6-----|--------6-----------6-----|
-------5----------5-----|-----7-----------7--------|-----7-----------7-----7--|
--5----------5----------|--8-----------8-----------|--8-----------8-----------|
------------------------|--------------------------|--------------------------|
------------------------|--------------------------|--------------------------|


--5----------------|------------------|-------------------8--|
--6----------------|------------------|---------------10-----|
--7----------------|------------------|----------9--------9--|
--8----------------|------------------|----------------------|
-------------------|------------------|----------------------|
-------------------|------------------|----------------------|


--------------------|-------------------|--------------------|
--10----------------|-------------------|--10----------------|
--------------------|--------------9----|--------------------|
--------------------|-------------------|--------------------|
--------------------|-------------------|--------------------|
--------------------|-------------------|--------------------|


----------------5----|-------------------|----------------5----|
---------------------|--6----------------|---------------------|
-----------7---------|-------------------|-----------7---------|
------8--------------|-------------------|------8--------------|
---------------------|-------------------|---------------------|
---------------------|-------------------|---------------------|


-------------------|------------------|--5----------------|------------------|
--6----------------|------------------|-------------------|------------------|
-------------------|------------------|-------------------|------------------|
-------------------|------------------|-------------------|------------------|
-------------------|------------------|-------------------|------------------|
-------------------|------------------|-------------------|------------------|


------------------|------------------|------------------|------------------|
------------------|------------------|------------------|------------------|
------------------|------------------|------------------|------------------|
------------------|------------------|------------------|------------------|
------------------|------------------|------------------|------------------|
------------------|------------------|------------------|------------------|


------------------|------------------|------------------|------------------|
------------------|------------------|------------------|------------------|
------------------|------------------|------------------|------------------|
------------------|------------------|------------------|------------------|
------------------|------------------|------------------|------------------|
------------------|------------------|------------------|------------------|


------------------|--------------13----------|--------12----------------|
------------------|--10----11----------------|--10----------------13----|
------------------|--------------------12----|--------------10----------|
------------------|--------------------------|--------------------------|
------------------|--------------------------|--------------------------|
------------------|--------------------------|--------------------------|


--10---------------8----|--6--------------5----|--------0----------||
------------------------|------------5---------|--------3----------||
--------9----10---------|-------7--------------|--------2----------||
------------------------|----------------------|--------0----------||
------------------------|----------------------|-------------------||
------------------------|----------------------|-------------------||




Guitar 2

E||-----------------0----|----------------------|---------------------|
B||-------6--------------|----------------------|------------3--------|
G||--7---------5---------|-------7---------5----|-------3-------------|
D||----------------------|--8---------7---------|--5------------------|
A||----------------------|----------------------|---------------------|
E||----------------------|----------------------|---------------------|


-------------------|-------------------|-------------------|-------------------|
-------------------|-------------------|-------------------|-------------------|
-------------------|-------------------|-------------------|-------------------|
-------------------|--0----------------|-------------------|-------------------|
----------0--------|-------------------|--3----------------|--1----------------|
-------------------|-------------------|-------------------|-------------------|


-------------------|-------------------|-------------------|-------------------|
-------------------|-------------------|-------------------|-------------------|
-------------------|--0----------------|-------------------|-------------------|
-------------------|-------------------|-------------------|--3----------------|
--0----------------|-------------------|------3------------|-------------------|
-------------------|-------------------|-------------------|-------------------|


-------------------|-------------------|-------------------|-------------------|
-------------------|-------------------|-------------------|-------------------|
-------------------|-------------------|-------------------|-------------------|
-------------------|-------------------|-------------------|-------------------|
--0----------------|--1----------------|--3----------------|--0----------------|
-------------------|-------------------|-------------------|-------------------|


-------------------|-------------------|------------------|-------------------|
-------------------|-------------------|------------------|-------------------|
-------------------|-------------------|------------------|-------------------|
--0----------------|-------------------|------------------|-------------------|
-------------------|-------------------|------------------|--0----------------|
-------------------|--3----------------|------------------|--8----------------|


------------------|----------------------|-------------5---------|
------------------|-----------------5----|--6--5------------5----|
------------------|------------7---------|--------7--------------|
------------------|-------7--------------|-----------------------|
------------------|--5-------------------|-----------------------|
------------------|----------------------|-----------------------|


----------------------|-------------5----0----|----------------------|
--6--------------5----|--6--5-------5----6----|------------3---------|
------------7---------|--------7--------------|-------2---------2----|
-------7--------------|-----------------------|--0-------------------|
--5-------------------|-----------------------|----------------------|
----------------------|-----------------------|----------------------|


----------------------|---------------------|----------------------|
------------1---------|------------1--------|------------1---------|
-------0---------0----|-------2-------------|-------0---------0----|
----------------------|--3------------------|----------------------|
--3-------------------|---------------------|--3-------------------|
----------------------|---------------------|----------------------|


---------------------|----------------------|----------------------|
------------1--------|------------1---------|------------3---------|
-------2-------------|-------0---------0----|-------2---------2----|
--3------------------|----------------------|--0-------------------|
---------------------|--3-------------------|----------------------|
---------------------|----------------------|----------------------|


---------------------|----------------------|----------------------|
------------1--------|------------3---------|------------1---------|
-------2-------------|-------2---------2----|-------0---------0----|
---------------------|--0-------------------|----------------------|
--0------------------|----------------------|--3-------------------|
---------------------|----------------------|----------------------|


---------------------|----------------------|---------------------|
------------1--------|------------1---------|------------3--------|
-------2-------------|-------0---------0----|-------3-------------|
--3------------------|----------------------|---------------------|
---------------------|--3-------------------|--1------------------|
---------------------|----------------------|---------------------|


-----------------0----|------------3---------|------------3---------|
------------1---------|-------3---------3----|-------3---------3----|
-------0--------------|--0-------------------|--0-------------------|
----------------------|----------------------|----------------------|
--3-------------------|----------------------|----------------------|
----------------------|----------------------|----------------------|


----------------------|----------------------|---------------------|
------------3---------|------------1---------|------------1--------|
-------2---------2----|-------0---------0----|-------2-------------|
--0-------------------|----------------------|--3------------------|
----------------------|--3-------------------|---------------------|
----------------------|----------------------|---------------------|


----------------------|---------------------|----------------------|
------------1---------|------------1--------|------------1---------|
-------0---------0----|-------2-------------|-------0---------0----|
----------------------|--3------------------|----------------------|
--3-------------------|---------------------|--3-------------------|
----------------------|---------------------|----------------------|


----------------------|---------------------|----------------------|
------------3---------|------------1--------|------------3---------|
-------2---------2----|-------2-------------|-------2---------2----|
--0-------------------|---------------------|--0-------------------|
----------------------|--0------------------|----------------------|
----------------------|---------------------|----------------------|


----------------------|---------------------|----------------------|
------------1---------|------------1--------|------------1---------|
-------0---------0----|-------2-------------|-------0---------0----|
----------------------|--3------------------|----------------------|
--3-------------------|---------------------|--3-------------------|
----------------------|---------------------|----------------------|


---------------------|-----------------0----|----------------------|
------------3--------|------------1---------|------------3---------|
-------3-------------|-------0--------------|-------2---------2----|
---------------------|----------------------|--0-------------------|
--1------------------|--3-------------------|----------------------|
---------------------|----------------------|----------------------|


-------------------|--------5--------3--------|--1--------0----------|
-------------------|-----6--------5--------3--|--------1-------------|
-------------------|--7--------5--------3-----|-----2----------------|
--0----------------|--------------------------|----------------------|
-------------------|--------------------------|----------------------|
-------------------|--------------------------|----------------------|


------------------|------------------|------------------|------------------|
------------------|------------------|------------------|------------------|
------------------|------------------|------------------|------------------|
------------------|------------------|------------------|------------------|
------------------|------------------|------------------|------------------|
------------------|------------------|------------------|------------------|


------------------|------------------|------------------|------------------|
------------------|------------------|------------------|------------------|
------------------|------------------|------------------|------------------|
------------------|------------------|------------------|------------------|
------------------|------------------|------------------|------------------|
------------------|------------------|------------------|------------------|


------------------|------------------|------------------|------------------|
------------------|------------------|------------------|------------------|
------------------|------------------|------------------|------------------|
------------------|------------------|------------------|------------------|
------------------|------------------|------------------|------------------|
------------------|------------------|------------------|------------------|


------------------|------------------|------------------|------------------|
------------------|------------------|------------------|------------------|
------------------|------------------|------------------|------------------|
------------------|------------------|------------------|------------------|
------------------|------------------|------------------|------------------|
------------------|------------------|------------------|------------------|


------------------|------------------|------------0---------|
------------------|------------------|-------1---------1----|
------------------|------------------|--2-------------------|
------------------|------------------|----------------------|
------------------|------------------|----------------------|
------------------|------------------|----------------------|


------------0---------|------------0---------|------------0---------|
-------1---------1----|-------1---------1----|-------1---------1----|
--2-------------------|--2-------------------|--2-------------------|
----------------------|----------------------|----------------------|
----------------------|----------------------|----------------------|
----------------------|----------------------|----------------------|


------------1---------|------------1---------|------------1---------|
-------3---------3----|-------3---------3----|-------3---------3----|
--3-------------------|--3-------------------|--3-------------------|
----------------------|----------------------|----------------------|
----------------------|----------------------|----------------------|
----------------------|----------------------|----------------------|


------------1---------|------------0---------|------------0---------|
-------3---------3----|-------1---------1----|-------1---------1----|
--3-------------------|--2-------------------|--2-------------------|
----------------------|----------------------|----------------------|
----------------------|----------------------|----------------------|
----------------------|----------------------|----------------------|


-------------------|------------------|------------------1----|
-------------------|------------------|---------------3-------|
--2----------------|------------------|------------3----------|
-------------------|------------------|-------3---------------|
-------------------|------------------|--1--------------------|
-------------------|------------------|-----------------------|


--0-------------------|------------5---------|----------------------|
------------1---------|----------------------|--6----5--------------|
-------0---------0----|--5-------------------|------------7---------|
----------------------|-------7---------7----|-----------------7----|
----------------------|----------------------|----------------------|
----------------------|----------------------|----------------------|


------------1---------|--0-------------------|----------------------|
-------3---------3----|------------1---------|-----------------1----|
--3-------------------|-------0---------0----|--2---------2---------|
----------------------|----------------------|-------3--------------|
----------------------|----------------------|----------------------|
----------------------|----------------------|----------------------|


----------------0----|--1-------------------|----------------------|
--2------3-----------|------------3---------|--1---------1---------|
---------------------|-------3---------0----|-------0---------0----|
---------------------|----------------------|----------------------|
---------------------|----------------------|----------------------|
---------------------|----------------------|----------------------|


-----------------0----|--1-------------------|----------------------|
--1---------1---------|-------3--------------|-----------------6----|
-------2--------------|----------2-----------|--0---------7---------|
----------------------|-------------0--------|-------8--------------|
----------------------|----------------------|----------------------|
----------------------|----------------------|----------------------|


------------0---------|-----------6--5----3--1--|--0-------------------|
-----------------8----|--------6----------------|------------1---------|
-------5--------------|-----7-------------------|-------0---------0----|
--7-------------------|--8----------------------|----------------------|
----------------------|-------------------------|----------------------|
----------------------|-------------------------|----------------------|


------------1---------|------------0---------|------------1---------|
-------3--------------|--0----3---------0----|--3-------------------|
--2--------------2----|----------------------|-------2---------2----|
----------------------|----------------------|----------------------|
----------------------|----------------------|----------------------|
----------------------|----------------------|----------------------|


------------0--------|------------1---------|------------0---------|
-------0-------------|----------------------|-------0---------0----|
---------------------|-------2---------2----|----------------------|
--0------------------|--0-------------------|--0-------------------|
---------------------|----------------------|----------------------|
---------------------|----------------------|----------------------|


---------------0--1----|----------------------|----------------------|
------------3----------|------------3---------|------------3---------|
-------2---------------|-------2---------2----|-------2---------2----|
--0--------------------|--0-------------------|--0-------------------|
-----------------------|----------------------|----------------------|
-----------------------|----------------------|----------------------|


----------------------|---------------------|----------------------|
------------1---------|------------1--------|------------1---------|
-------0---------0----|-------2-------------|-------0---------0----|
----------------------|--3------------------|----------------------|
--3-------------------|---------------------|--3-------------------|
----------------------|---------------------|----------------------|


---------------------|----------------------|----------------------|
------------1--------|------------1---------|------------3---------|
-------2-------------|-------0---------0----|-------2---------2----|
--3------------------|----------------------|--0-------------------|
---------------------|--3-------------------|----------------------|
---------------------|----------------------|----------------------|


---------------------|----------------------|----------------------|
------------1--------|------------3---------|------------1---------|
-------2-------------|-------2---------2----|-------0---------0----|
---------------------|--0-------------------|----------------------|
--0------------------|----------------------|--3-------------------|
---------------------|----------------------|----------------------|


---------------------|----------------------|---------------------|
------------1--------|------------1---------|------------3--------|
-------2-------------|-------0---------0----|-------3-------------|
--3------------------|----------------------|---------------------|
---------------------|--3-------------------|--1------------------|
---------------------|----------------------|---------------------|


-----------------0----|------------3---------|------------3---------|
------------1---------|-------3---------3----|-------3---------3----|
-------0--------------|--0-------------------|--0-------------------|
----------------------|----------------------|----------------------|
--3-------------------|----------------------|----------------------|
----------------------|----------------------|----------------------|


----------------------|----------------------|---------------------|
------------3---------|------------1---------|------------1--------|
-------2---------2----|-------0---------0----|-------2-------------|
--0-------------------|----------------------|--3------------------|
----------------------|--3-------------------|---------------------|
----------------------|----------------------|---------------------|


----------------------|---------------------|----------------------|
------------1---------|------------1--------|------------1---------|
-------0---------0----|-------2-------------|-------0---------0----|
----------------------|--3------------------|----------------------|
--3-------------------|---------------------|--3-------------------|
----------------------|---------------------|----------------------|


----------------------|---------------------|----------------------|
------------3---------|------------1--------|------------3---------|
-------2---------2----|-------2-------------|-------2---------2----|
--0-------------------|---------------------|--0-------------------|
----------------------|--0------------------|----------------------|
----------------------|---------------------|----------------------|


----------------------|---------------------|----------------------|
------------1---------|------------1--------|------------1---------|
-------0---------0----|-------2-------------|-------0---------0----|
----------------------|--3------------------|----------------------|
--3-------------------|---------------------|--3-------------------|
----------------------|---------------------|----------------------|


---------------------|-----------------0----|----------------------|
------------3--------|------------1---------|------------3---------|
-------3-------------|-------0--------------|-------2---------2----|
---------------------|----------------------|--0-------------------|
--1------------------|--3-------------------|----------------------|
---------------------|----------------------|----------------------|


-------------------|--------5--------3--------|--1--------0----------|
-------------------|-----6--------5--------3--|--------1-------------|
-------------------|--7--------5--------3-----|-----2----------------|
--0----------------|--------------------------|----------------------|
-------------------|--------------------------|----------------------|
-------------------|--------------------------|----------------------|


------------------|------------------|------------------|------------------|
------------------|------------------|------------------|------------------|
------------------|------------------|------------------|------------------|
------------------|------------------|------------------|------------------|
------------------|------------------|------------------|------------------|
------------------|------------------|------------------|------------------|


------------------|------------------|------------------|------------------|
------------------|------------------|------------------|------------------|
------------------|------------------|------------------|------------------|
------------------|------------------|------------------|------------------|
------------------|------------------|------------------|------------------|
------------------|------------------|------------------|------------------|


------------------|------------------|------------------|------------------|
------------------|------------------|------------------|------------------|
------------------|------------------|------------------|------------------|
------------------|------------------|------------------|------------------|
------------------|------------------|------------------|------------------|
------------------|------------------|------------------|------------------|


------------------|------------------|------------------|------------------|
------------------|------------------|------------------|------------------|
------------------|------------------|------------------|------------------|
------------------|------------------|------------------|------------------|
------------------|------------------|------------------|------------------|
------------------|------------------|------------------|------------------|


------------------|------------------|------------0---------|
------------------|------------------|-------1---------1----|
------------------|------------------|--2-------------------|
------------------|------------------|----------------------|
------------------|------------------|----------------------|
------------------|------------------|----------------------|


------------0---------|------------0---------|------------0---------|
-------1---------1----|-------1---------1----|-------1---------1----|
--2-------------------|--2-------------------|--2-------------------|
----------------------|----------------------|----------------------|
----------------------|----------------------|----------------------|
----------------------|----------------------|----------------------|


------------1---------|------------1---------|------------1---------|
-------3---------3----|-------3---------3----|-------3---------3----|
--3-------------------|--3-------------------|--3-------------------|
----------------------|----------------------|----------------------|
----------------------|----------------------|----------------------|
----------------------|----------------------|----------------------|


------------1---------|------------0---------|------------0---------|
-------3---------3----|-------1---------1----|-------1---------1----|
--3-------------------|--2-------------------|--2-------------------|
----------------------|----------------------|----------------------|
----------------------|----------------------|----------------------|
----------------------|----------------------|----------------------|


-------------------|------------------|----------------------|
-------------------|------------------|-----------------3----|
--2----------------|------------------|------------3---------|
-------------------|------------------|-------3--------------|
-------------------|------------------|--1-------------------|
-------------------|------------------|----------------------|


------------------|------------------|------------------|------------------|
------------------|------------------|------------------|------------------|
------------------|------------------|------------------|------------------|
------------------|------------------|------------------|------------------|
------------------|------------------|------------------|------------------|
------------------|------------------|------------------|------------------|


------------------|------------------|------------------|-------1---------0----|
------------------|------------------|------------------|--3---------1---------|
------------------|------------------|------------------|----------------------|
------------------|------------------|------------------|----------------------|
------------------|------------------|------------------|----------------------|
------------------|------------------|------------------|----------------------|


----------------------|----------------------|------------------12----|
-------3---------1----|-----------------1----|------------------13----|
--3---------2---------|--0----3----2---------|-------0----------------|
----------------------|----------------------|------------10----------|
----------------------|----------------------|--0---------------------|
----------------------|----------------------|------------------------|


--------0----------||
--------3----------||
--------2----------||
--------0----------||
-------------------||
-------------------||

VGJam Tabs Final Fantasy X - "Suteki Da Ne"
Tabs database last modified Tuesday, 01-Nov-2016 19:14:53 UTC.
Copyright © 1999 - 2016 VideoGameJam.com. All rights reserved.