VGJam Tabs Super Mario World
Super Mario World
"Yoshi's House" - Guitar tab
Platform(s):Super NES
Composed by:Koji Kondo
Tabbed by:Deezer
Last modified:2002-03-31
Print it:Original file (.TXT)
Hear it:MIDI file
#----------------------------------PLEASE NOTE---------------------------------#
#This file is the author's own work and represents their interpretation of the #
#song. You may only use this file for private study, scholarship, or research. #
#------------------------------------------------------------------------------#

Super Mario World (Super NES)
"Yoshi's House"

Originally composed by: Koji Kondo
------------------------------------------------------------------------------
Tabbed by: Deezer (deezer@kontek.net)
For http://www.kontek.net/vgjam/
------------------------------------------------------------------------------

Symbols used:
 h = hammer-on
 p = pull-off

Standard Tuning - (low to high) EADGBe


|-------------------------------------------------------
|-10---------------------------------------13--10-------
|-------10--------10--10-----------10--10-----------12--
|-----------10h12-----------12p10-----------------------
|-------------------------------------------------------
|-------------------------------------------------------

 ---------------------------------------------------------|
 -----10-----------------------------------11p10----------|
 -----------10--------10--10-----------10--------12p10----|
 --10-----------10h12-----------12p10---------------------|
 ---------------------------------------------------------|
 ---------------------------------------------------------| x2

---------------------------------------------
--10-----------10----------------------------
------10-----------10------13p10-----13--12--
-----------10--------------------10----------
---------------------------------------------
---------------------------------------------

-----------------------------------------
--10-----------10--------------------13--
------10-----------10------13p10---------
-----------10--------------------10------
-----------------------------------------
-----------------------------------------

-------------------------------------------------
-10---------------------------10-----------------
-------10--------10--10----12----10---------10---
-----------10h12--------------------10--12-------
-------------------------------------------------
-------------------------------------------------

--------10----10-------------------------
-----13----13----13-------11p10----------
--------------------------------12-10----
--12-------------------10----------------
-----------------------------------------
-----------------------------------------


Last revised: 3/31/2002

VGJam Tabs Super Mario World - "Yoshi's House"
Tabs database last modified Tuesday, 01-Nov-2016 19:14:53 UTC.
Copyright © 1999 - 2016 VideoGameJam.com. All rights reserved.