VGJam Tabs Super Mario World 2: Yoshi's Island
Super Mario World 2: Yoshi's Island
"Overworld" - Guitar tab
Platform(s):Super NES
Composed by:Koji Kondo
Soundtrack:Super Mario: Yoshi's Island Original Sound Version (track 14)
Tabbed by:Deezer
Last modified:1998-01-09
Date added:1999-04-04
Print it:Original file (.TXT)
Hear it:MIDI file
#----------------------------------PLEASE NOTE---------------------------------#
#This file is the author's own work and represents their interpretation of the #
#song. You may only use this file for private study, scholarship, or research. #
#------------------------------------------------------------------------------#

Super Mario World 2: Yoshi's Island (SNES)
"Jungle Theme"

Originally composed by: Koji Kondo
------------------------------------------------------------------------------
Tabbed by Deezer - deezer@usa.net
http://www.kontek.net/vgjam/
------------------------------------------------------------------------------

Symbols used:
 x2 = Play this section 2 times.

Standard tuning - EADGBe


|--0-0-0-0---0-------------------0-0-0-0---0--------0--------|
|----------1------------1-3--------------1------------1-3-3--|
|--------------2------2----------------------2---------------|
|------------------------------------------------------------|
|------------------------------------------------------------|
|------------------------------------------------------------| x2

|----------------------------------------------|
|--------1-------------------------------------|
|--0-0-0---2-0---0-0-0------2-0-2-0------------|
|--------------2----------------------2--------|
|-----------------------------------3---3-3-3--|
|----------------------------------------------| x2

|-------------------------0-----------------------0--------|
|-----------------1-3-1-3-----------------------1---3-1-1--|
|--2-0-2-0-2---------------------2-0-2-0-2-----------------|
|--3-2-3-2-3---------------------3-2-3-2-3-----------------|
|----------------------------------------------------------|
|----------------------------------------------------------| x2

Repeat from beginning.


Last revised: 1/9/98
VGJam Tabs Super Mario World 2: Yoshi's Island - "Overworld"
Tabs database last modified Tuesday, 01-Nov-2016 19:14:53 UTC.
Copyright © 1999 - 2016 VideoGameJam.com. All rights reserved.