VGJam Tabs Super Metroid
Super Metroid
"Brinstar (red)" - Guitar tab
Platform(s):Super NES
Tabbed by:Steve Havens
Last modified:2001-07-08
Print it:Original file (.TXT)
Hear it:MIDI file
Super Metroid (SNES): Brinstar (Where the ground and walls are red)

|---------11----------------------------------11----------------------|
|---------------------14----------------------------------14----------|
|-----13----------13----------------------13----------13--------------|
|-13----------13----------------------13----------13------------------|
|---------------------------------------------------------------------|
|---------------------------------------------------------------------|

|---------------------------------------------11----------------------|
|---------11----------14----------------------------------14----------|
|-----13----------13----------------------13----------13--------------|
|-13----------13----------------------13----------13------------------|
|---------------------------------------------------------------------|
|---------------------------------------------------------------------|

|---------11----------------------------------11----------------------|
|---------------------14----------------------------------14----------|
|-----13----------13----------------------13----------13--------------|
|-13----------13----------------------13----------13------------------|
|---------------------------------------------------------------------|
|---------------------------------------------------------------------|

|---------11----------------------------------11----------------------|
|---------------------14----------------------------------14----------|
|-----13----------13----------------------13----------13--------------|
|-13----------13----------------------13----------13------------------|
|---------------------------------------------------------------------|
|---------------------------------------------------------------------|
|                                                                     |
|-11------------------------------------------------------------------|
|-------------------------------11----11------------------------------|
|----------------------------------13---------------------------------|
|---------------------------------------------------------------------|
|---------------------------------------------------------------------|
|---------------------------------------------------------------------|

|---------------------------------------------11----------------------|
|-----------------11----------14--------------------------14----------|
|-------------13----------13--------------13----------13--------------|
|---------13----------13--------------13----------13------------------|
|---------------------------------------------------------------------|
|---------------------------------------------------------------------|
|                                                                     |
|---------------------------------------------------------------------|
|---------------------------------------------------------------------|
|-13------11----------------------13----------------------------------|
|-----13------------------------------13------------------------------|
|---------------------------------------------------------------------|
|---------------------------------------------------------------------|

|---------11----------------------------------11----------------------|
|---------------------14----------------------------------14----------|
|-----13----------13----------------------13----------13--------------|
|-13----------13----------------------13----------13------------------|
|---------------------------------------------------------------------|
|---------------------------------------------------------------------|

|---------11----------------------------------11----------------------|
|---------------------14----------------------------------14----------|
|-----13----------13----------------------13----------13--------------|
|-13----------13----------------------13----------13------------------|
|---------------------------------------------------------------------|
|---------------------------------------------------------------------|
|                                                                     |
|-11------------------------------------------------------------------|
|-------------------------------11----11------------------------------|
|----------------------------------13---------------------------------|
|---------------------------------------------------------------------|
|---------------------------------------------------------------------|
|---------------------------------------------------------------------|

|---------------------------------------------11----------------------|
|-----------------11----------14--------------------------14----------|
|-------------13----------13--------------13----------13--------------|
|---------13----------13--------------13----------13------------------|
|---------------------------------------------------------------------|
|---------------------------------------------------------------------|
|                                                                     |
|---------------------------------14--11------------------------------|
|---------------------------------------------------------------------|
|-13------11----------------------------------------------------------|
|-----13--------------------------------------------------------------|
|---------------------------------------------------------------------|
|---------------------------------------------------------------------|

|---------11----------------------------------11----------------------|
|---------------------14----------------------------------14----------|
|-----13----------13----------------------13----------13--------------|
|-13----------13----------------------13----------13------------------|
|---------------------------------------------------------------------|
|---------------------------------------------------------------------|

|---------------------------------------------11----------------------|
|---------11----------14----------------------------------14----------|
|-----13----------13----------------------13----------13--------------|
|-13----------13----------------------13----------13------------------|
|---------------------------------------------------------------------|
|---------------------------------------------------------------------|

|---------11----------------------------------11----------------------|
|---------------------14----------------------------------14----------|
|-----13----------13----------------------13----------13--------------|
|-13----------13----------------------13----------13------------------|
|---------------------------------------------------------------------|
|---------------------------------------------------------------------|


|---------11----------------------------------11----------------------|
|---------------------14----------------------------------14----------|
|-----13----------13----------------------13----------13--------------|
|-13----------13----------------------13----------13------------------|
|---------------------------------------------------------------------|
|---------------------------------------------------------------------|

|---------11-------------------------------------11-------------------|
|------------------------------14----------------------------14-------|
|-----13-------------------13----------------13----------13-----------|
|-13-------------------13----------------13----------13---------------|
|---------------------------------------------------------------------|
|---------------------------------------------------------------------|
|                                                                     |
|-11------------------------------------------------------------------|
|----14-11----11------------------------------------------------------|
|----------13----13-11---------------------------11--13---------------|
|----------------------13----------------11--13--11--13---------------|
|----------------------------------------11--13-----------------------|
|---------------------------------------------------------------------|

|---------11-------------------------------------11-------------------|
|------------------------------14----------------------------14-------|
|-----13-------------------13----------------13----------13-----------|
|-13-------------------13----------------13----------13---------------|
|---------------------------------------------------------------------|
|---------------------------------------------------------------------|
|                                                                     |
|-11------------------------------------------------------------------|
|----14-11----11---------------------------------11-------------------|
|----------13----13-11---------------------------11--13---------------|
|----------------------13----------------11--13------13---------------|
|----------------------------------------11--13-----------------------|
|---------------------------------------------------------------------|

|---------11----------------------------------11----------------------|
|------------------------------14----------------------------------14-|
|-----13-------------------13-------------13-------------------13-----|
|-13-------------------13-------------13-------------------13---------|
|---------------------------------------------------------------------|
|---------------------------------------------------------------------|
|                                                                     |
|---------------------------------------------------------------------|
|----------------11----------------------------------11----14---------|
|-------13----13----11----------------------13----13----11------------|
|-11-13----13----------13-------------11-13----13---------------------|
|---------------------------------------------------------------------|
|---------------------------------------------------------------------|

|---------11----------------------------------------------------------|
|-------------------------14------------------------------------------|
|-----13--------------13----------------------------------------------|
|-13--------------13--------------------------------------------------|
|---------------------------------------------------------------------|
|---------------------------------------------------------------------|
|                                                                     |
|-11------------------------------------------------------------------|
|----14-11----11------------------------------------------------------|
|----------13----13-11-------13-11------------------------------------|
|----------------------11-13-------11-13------------------------------|
|---------------------------------------------------------------------|
|---------------------------------------------------------------------|

Tabbed by Steve Havens, smhave@lightspeed.net

VGJam Tabs Super Metroid - "Brinstar (red)"
Tabs database last modified Tuesday, 01-Nov-2016 19:14:53 UTC.
Copyright © 1999 - 2016 VideoGameJam.com. All rights reserved.