VGJam Tabs Super Metroid
Super Metroid
"Mother Brain battle" - Guitar, Bass tab
Platform(s):Super NES
Tabbed by:Thomas McManus
Last modified:2000-07-18
Print it:Original file (.TXT)
Hear it:MIDI file
Song: Mother Brain
Game: Super Metroid
Composer: ???
Tabbed by: Thomas McManus (tom0015@hotmail.com)



This is another guitar/bass guitar combo. The length of vibrato
on the guitar isn't entirely accurate, it's hard to show
on paper. Just listen to a midi and you should figure it out.


e----------------------------------------------------------------
B----------------------------------------------------------------
G------------------------------------------3---1-2~~~~\0---------
D---------------------4b5~~~\0---4b5~~~\0----4-------------------
A----------------------------------------------------------------
E----------------------------------------------------------------
|                                                               |
G----------------------------------------------------------------
D----------------------------------------------------------------
A----------------------------------------------------------------
E-3--4--5-2--3--4--5-2--3--4--5-2--3--4--5-2--3--4--5-2--3--4--5-




e------------------------------------------------------------
B----------------------------------2~~~~~\0---2~~~~~~\0------
G-3---1-2~~\0------------------------------------------------
D---4--------b5~~~\0----b5~~~\0------------------------------
A------------------------------------------------------------
E------------------------------------------------------------
|                                                           |
G------------------------------------------------------------
D------------------------------------------------------------
A------------------------------------------------------------
E-2--3--4--5-2--3--4--5-2--3--4--5-2--3--4--5-2--3--4--5-----


e------------------------------------------------------------
B-4-4p3~~~~~-------------4-4p3~~~~------------5b6~~~~~~------
G------------------------------------------------------------
D------------------------------------------------------------
A------------------------------------------------------------
E------------------------------------------------------------
|                                                           |
G------------------------------------------------------------
D------------------------------------------------------------
A------------------------------------------------------------
E-2--3--4--5-2--3--4--5-2--3--4--5-2--3--4--5-2--3--4--5-----


e-------------------------------------------------------
B------------4-4p3~~~~~---------------------------------
G-------------------------------------------------------
D-------------------------------------------------------
A-------------------------------------------------------
E-------------------------------------------------------
|                                                      |
G-------------------------------------------------------
D-------------------------------------------------------
A-------------------------------------------------------
E-2--3--4--5-2--3--4--5-2--3--4--5----------------------

VGJam Tabs Super Metroid - "Mother Brain battle"
Tabs database last modified Tuesday, 01-Nov-2016 19:14:53 UTC.
Copyright © 1999 - 2016 VideoGameJam.com. All rights reserved.