VGJam Tabs Super Metroid
Super Metroid
"Title screen" - Guitar tab
Platform(s):Super NES
Tabbed by:Thomas McManus
Last modified:2000-03-18
Print it:Original file (.TXT)
Hear it:MIDI file
Song: Title
Game: Super Metroid
Composer: ???
Tabbed by: Thomas McManus (tom0015@hotmail.com)


This is the music from when you turn it on, through all the
demos.
***NOTE: this is in Drop-D tuning***


BG riff:
e----------
B-3-3-3-3--

G----------


Riff I   Riff II   Riff III   Riff IV
e-5-4----|--5~~p4--|---1-4-5--|---------|--
B-----3--|---------|-3--------|---------|--
G--------|---------|----------|---------|--
D--------|---------|----------|-7\0-----|--
A--------|---------|----------|---------|--
D--------|---------|----------|---------|--


Main riff:
e-------------------------------------------|
B-------------------------------------------|
G------3-3-----------------5-5--3-3---------|
D-0-0-------3-3-------0-0-------------------|
A-------------------------------------------|
D-------------------------------------------|
|                                           |
e-------------------------------------------|
B-------------------------------------------|
G-------------------------------------------|
D-------------------------------------------|
A-------------------------------------------|
D-0----0----0----0----0----0----0----0------|


Okay, this is suited for 2 guitars. While one plays
the BG riff, on the 3rd or 4th note (it varies), the
other guitar plays one of the other riffs. Then one
plays the upper half of the Main riff, and the other the
lower half.


Guitar One: | Guitar Two:
BG Riff x6  | Riffs I, II, I, III, I, IV
Main riff   | Main riff

VGJam Tabs Super Metroid - "Title screen"
Tabs database last modified Tuesday, 01-Nov-2016 19:14:53 UTC.
Copyright © 1999 - 2016 VideoGameJam.com. All rights reserved.